In Flames - Dial 595 Escape Chords & Tabs

 

Dial 595 Escape Chords & Tabs

In Flames Chords & Tabs

Version: 1 Type: Tab 0 ratings
1 star 2 stars 3 stars 4 stars 5 stars
comments

Dial 595 Escape Tab

   
In Flames
Dial 595-Escape
Soundtrack to your Escape
A# (A#, F, A#, D#, G, C)
Rob Fitzgerald
car_crazy33@hotmail.com
Thursday October 28th, 2004.

Legend:

\        slide
*        artificial harmonic
hbr     half bend and release
fb       full bend

***THIS IS A ROUGH GUESS OF THE RIFFS BASED ON A GUITAR PRO TAB
THE TIMING ISN'T THERE AND I DOUBT IT'S CORRECT BUT I DO BELIEVE
ALL THE RIFFS ARE THERE SO YOU FIGURE THAT ALL OUT YOURSELF. IF
THIS APPEARS MESSY, OPEN IT IN NOTEPAD WITH THE FONT SET TO
TAHOMA,REGULAR,12 (SCRIPT:WESTERN)***


INTRO/CHORUS:


|--------------------------------------------------------------------|
|--------------------------------------------------------------------|
|--------------------------------------------------------------------|
|---0-0-0--0--0----7----8----10---0-0-0--0--0----3----5------|
|---0-0-0--0--0----7----8----10---0-0-0--0--0----3----5------|
|---0-0-0--0--0----7----8----10---0-0-0--0--0----3----5------|

|-------------------------------------------------------------------|
|-------------------------------------------------------------------|
|-------------------------------------------------------------------|
|---0-0-0--0--0----7----8----10---8-8-8--8-8----3----5------|
|---0-0-0--0--0----7----8----10---8-8-8--8-8----3----5------|
|---0-0-0--0--0----7----8----10---8-8-8--8-8----3----5------|


VERSE 1:


|--------------------------------------------------------------------------------------|
|--------------------------------------------------------------------------------------|
|--------------------------------------------------------------------------------------|
|---0-0------0-0------0-0---7-8-3------------0-0------0-0------0-0--------------|
|---0-0------0-0------0-0---7-8-3------------0-0------0-0------0-0---0-1-0-1--|
|---0-0------0-0------0-0---7-8-3------------0-0------0-0------0-0--------------|
 *************APPLY PALM MUTES WHEN NEEDED***************

PRE CHORUS:


|------------------------------------------------------------------------------------|
|------------------------------------------------------------------------------------|
|------------------------------------------------------------------------------------|
|------------------------------------------------------------------------------------|
|------------------------------------------------------------------------------------|
|---3-3-3-3-3-3-3-3-3-3-3-3-3-3-3-3-2-2-2-2-2-2-2-2-2-2-2-2-2-2-2-2--|

|-------------------------------------------------------------------------------------|
|-------------------------------------------------------------------------------------|
|-------------------------------------------------------------------------------------|
|-------------------------------------------------------------------------------------|
|-------------------------------------------------------------------------------------|
|----3-3-3-3-3-3-3-3-3-3-3-3-3-3-3-3-5-5-5-5-5-5-5-5-5-5-5-5-5-5-5-5--|

|------------------------------------------------------------------------------------|
|------------------------------------------------------------------------------------|
|------------------------------------------------------------------------------------|
|------------------------------------------------------------------------------------|
|------------------------------------------------------------------------------------|
|---3-3-3-3-3-3-3-3-3-3-3-3-3-3-3-3-2-2-2-2-2-2-2-2-2-2-2-2-2-2-2-2--|

|----------------------------------------------------------------------|
|----------------------------------------------------------------------|
|----------------------------------------------------------------------|
|------------------------------------------------------------------5--|
|------------------------------------------------------------------5--|
|----3-3-3-3-3-3-3-3-3-3-3-3-3-3-3-3-5-5-5-5-5-5-5-5---5--|
[ Tab from: http://www.guitartabs.cc/tabs/i/in_flames/dial_595_escape_tab.html ]
VERSE 2:
 
                                                                                                 Fill
|------------------------------------------------------------------------------|-------------------|
|------------------------------------------------------------------------------|-------------------|
|------------------------------------------------------------------------------|-------------------|
|---0-0------0-0------0-0---0-0-0------0-0------0-0----------------------|---3---2--0------|
|---0-0------0-0------0-0---0-0-0------0-0------0-0------1--0--1--3----|--------------3---|
|---0-0------0-0------0-0---0-0-0------0-0------0-0----------------------|-------------------|


PRE-SOLO:


|--------------------------------------------------------------------|
|--------------------------------------------------------------------|
|---------7--------3--------5-------7------------------------------|
|---------7--------3--------5-------7----0------------------------|
|---------5--------1--------3-------5----0------------------------|
|---0-0------0-0-----0-0-----0-0-------0---3-3-3-5-5-5-3-3--|


BACKING RIFF FOR SOLO:


|------------------------------------------------|
|-----------------5--7--------------------------|
|-----------------5--7--------------------------|
|---2-2----2-2--3--5----2-2----2-2--5--0---|
|---2-2----2-2-----------2-2----2-2--5--0---|
|---2-2----2-2-----------2-2----2-2--5--0---|

|------------------------------------------------------|
|------------------------------------------------------|
|------------------3--------5-------7-----------------|
|---------7*------3--------5-------7-----------------|
|------------------1--------3-------5-----------------|
|---0-0------0-0-----0-0-----0-0-------0-0--5--3--|

|----------------------------------------------|
|----------------------------------------------|
|---------7--------3--------5-------7--------|
|---------7--------3--------5-------7--------|
|---------5--------1--------3-------5--------|
|---0-0------0-0-----0-0-----0-0-------0--|

SOLO:


|---12-0-10-11--12-0-10-11--12-0-7-0--10-0-7-0--5-0-7-0--5-0-3-0-2--2hbr--0--10fb--|
|------------------------------------------------------------------------------------------------------|
|------------------------------------------------------------------------------------------------------|
|------------------------------------------------------------------------------------------------------|
|------------------------------------------------------------------------------------------------------|
|------------------------------------------------------------------------------------------------------|


|---15-14-12--------------------------------------------------------------------------------------|
|----------------12-13-12-10---------------------------------------------------------------------|
|---------------------------------12-14-12-11----------------------------------------------------|
|--------------------------------------------------14-12-14-12-10-------------------------------|
|------------------------------------------------------------------------14-10-12-10-9----------|
|-------------------------------------------------------------------------------------------14-12--|



FINAL CHORUS:


|--------------------------------------------------------------------|
|--------------------------------------------------------------------|
|--------------------------------------------------------------------|
|---0-0-0--0--0----7----8----10---0-0-0--0--0----3----5------|
|---0-0-0--0--0----7----8----10---0-0-0--0--0----3----5------|
|---0-0-0--0--0----7----8----10---0-0-0--0--0----3----5------|

|-------------------------------------------------------------------|
|-------------------------------------------------------------------|
|-------------------------------------------------------------------|
|---0-0-0--0--0----7----8----10---8-8-8--8-8----3----5------|
|---0-0-0--0--0----7----8----10---8-8-8--8-8----3----5------|
|---0-0-0--0--0----7----8----10---8-8-8--8-8----3----5------|

|-----------------------------------------------------------------------------------------------------|
|-----------------------------------------------------------------------------------------------------|
|-----------------------------------------------------------------------------------------------------|
|---8-8-8--8-8----3----5---8-8-8--8-8----3----5---8-8-8--8-8----3----5-----------------0---|
|---8-8-8--8-8----3----5---8-8-8--8-8----3----5---8-8-8--8-8----3----5-----------------0---|
|---8-8-8--8-8----3----5---8-8-8--8-8----3----5---8-8-8--8-8----3----5------3-3-3-----0---|
Comments