In Flames - Dawn Of A New Day Chords & Tabs

 

Dawn Of A New Day Chords & Tabs

In Flames Chords & Tabs

Version: 1 Type: Bass Tab 0 ratings
1 star 2 stars 3 stars 4 stars 5 stars
comments

Dawn Of A New Day Bass Tab

In Flames:  Dawn of a new day

bas tab


main riff:

G|--------------------------|-------------------------|--------------------------|-------------------------|
D|--------------------------|-------------------------|--------------------------|-------------------------|
A|--3-3-3-3-3-3-------1-1-1-|-3-3-3-3-3-3-------------|--3-3-3-3-3-3-------1-1-1-|-3-3-3-3-3-3-------------|
E|--------------4-4-4-------|-------------4-4-4-1-1-1-|--------------4-4-4-------|-------------1-1-1-4-4-4-|




couplet:
[ Tab from: http://www.guitartabs.cc/tabs/i/in_flames/dawn_of_a_new_day_btab.html ]
|---------------------------|--------------------------|-------------------------|-------------------------|
|---------------------------|--------------------------|-------------------------|-------------------------|
|--3--------3-3----------1/3|-3---3-3----------------3-|-3------3-3----------1/3-|--3----3-3---------------|
|---------------4-4----4----|---------4-4----4----1----|------------4-4----4-----|-----------1-1----1/4----|


"bas Solo"
|-------------------------------------------------|
|-------------------------------------------------|
|-3-3-3-3-3-3-3-3-3-3-----------------------------|
|---------------------4-3-1-1-1-1-1-1-4-4-4-4-4-4-|
Comments