In Flames - Crawl Through Knives Chords & Tabs

 

Crawl Through Knives Chords & Tabs

In Flames Chords & Tabs

Version: 1 Type: Tab

Crawl Through Knives Tab

Part 1
E|-----------------------------------|
B|-----------------------------------|
G|-----------------------------------|
D|------------1-3-1h3p1h3------6--6--|
A|-1~~-1-3-4--------------4---4--6---|
D|---------------------------4--6----|
[ Tab from: http://www.guitartabs.cc/tabs/i/in_flames/crawl_through_knives_tab.html ]
Part2
E|----------------------------------------|
B|----------------------------------------|
G|----------------------------------------|
D|------------1-3-1h3p1h3------4--6--1--3-|
A|-1~~-1-3-4--------------4---4--6--1--3--|
D|---------------------------4--6--1--3---|