In Flames - Cloud Connected Chords & Tabs

 

Cloud Connected Chords & Tabs

In Flames Chords & Tabs

Version: 1 Type: Tab 0 ratings
1 star 2 stars 3 stars 4 stars 5 stars
comments

Cloud Connected Tab

   
This song is played in C on the album but I play it in D and it 
sounds pretty good. People don't even know the difference when I
play it in D.

Tuning: D (D,A,D,G,B,e)

Intro:
------------------------------------------------------
------------------------------------------------------
------------------------------------------------------
-0-0--0-0-----0-0--0-0--------------------------------
-0-0--0-0-----0-0--0-0--------------------------------
-0-0--0-0-----0-0--0-0--------------------------------

Main Riff:
------------------------------------------------------
------------------------------------------------------
------------------------------------------------------
------------------------------------------------------
--5-----3h5---8---7---3-----3-------------------------
----0-0-----0---0---0---5-5---------------------------
[ Tab from: http://www.guitartabs.cc/tabs/i/in_flames/cloud_connected_tab.html ]
Riff that leads into the verse: (Listen for when to do it)
------------------------------------------------------
------------------------------------------------------
------------------------------------------------------
-77777777999999997777777755555555---------------------
-55555555777777775555555555555555---------------------
-------------------------55555555---------------------

Verse:
------------------------------------------------------
------------------------------------------------------
------------------------------------------------------
-0-0--0-0------------------0-0-0-0--0-0-0-0-----------
-0-0--0-0------------------0-0-0-0--0-0-0-0-----------
-0-0--0-0------------------0-0-0-0--0-0-0-0-----------

Chorus:
------------------------------------------------------
------------------------------------------------------
------------------------------------------------------
-1111111111111111-5555555555555555-1111111111111111---
-1111111111111111-5555555555555555-1111111111111111---
-1111111111111111-5555555555555555-1111111111111111---

------------------------------------------------------
------------------------------------------------------
------------------------------------------------------
-5555555533333333-------------------------------------
-5555555533333333-------------------------------------
-5555555533333333-------------------------------------

This is my first tab so it's probably full of mistakes. If 
there is something wrong with it please let me know at 
chaset10@msn.com. Thanks.
Comments