In Flames - Clayman Chords & Tabs

 

Clayman Chords & Tabs

In Flames Chords & Tabs

Version: 2 Type: Bass Tab 0 ratings
1 star 2 stars 3 stars 4 stars 5 stars
comments

Clayman Bass Tab

   
                      In Flames - Clayman (BASS)
                     From the Album Clayman
              Copyright 2000 nuclear blast records
                     Version 1.0 - December 2000

Transcribed by: Rainer Weber

For Questions, Comments, Newest Version, or Corrections contact
Rainer Weber: at rainerweber@yahoo.com

Check Out Death Warp, With More Transcriptions On It:
 http://tiger.towson.edu/~dalvis1

..  - palm mute          /  - slide up to
 \  - slide down to      ~  - vibrato
 h  - hammer on          b  - bend
 p  - pull off            Suffixes for bend
                          ph - pinch harmonic
                           f - full bend    h - half bend
*  - see comment           r - release      t - tap bend
X  - percussion mute       ~ - vibrato bend
@  - slight palm mute     () - ghost note, sustained note

Tune Bass to (C,F,Bb,Eb)

Clayman

Riff A (0:00 - 0:22)
|--------------------------------------------------------------|
|--------------------------------------------------------------|
|--------------------------------------------------------------|
|-5---5--5/8---8--8\3---3--3/10-------5---5--5/8---8--8\333-3-3|

|---------|
|---------| 
|---------|
|-333-3-3-|

Repeat Riff A (1 Time)

Riff B (0:23 - 0:44) 
|------------------------------------------------------------------|
|------------------------------------------------------------------|
|------------------------------------------------------------------|
|-222-2-2-222-2-2-555-5-5-555-5-5-222-2-2-222-2-2-555-5-5-000-3-33-|

Repeat Riff B (1 time)

Riff C (0:44 - 0:55)
|----------------------------------|
|----------------------------------|
|-4---34543--6---56765-------------|
|---4----------6-------6/\/\/15----|
[ Tab from: http://www.guitartabs.cc/tabs/i/in_flames/clayman_btab_ver_2.html ]
Repeat Riff C (1 time)
Repeat Riff B (2 times)


Riff D (1:17 - 1:28)
|-----------------------------------|
|-----------------------------------|
|-4---34543--6---56765--------------|
|---4----------6-------6/\/\/15-----|

Riff E (1:28 - 1:47)
|---------------------------------------------------------------|
|---------------------------------------------------------------|
|---------------------------------------------------------------|
|-5---5--5/8---8--8\3---3--3/10-------5---5--5/8---8--8\333-3-3-|

|---------------------------------------------------------------|
|---------------------------------------------------------------|
|---------------------------------------------------------------|
|-333-3-3--5---5--5/8---8--8\3---3--3/10-------5---5--5/8---8--8|

Riff F (1:47 - 2:31)
|-------------------------------------------------------------|
|-------------------------------------------------------------|
|----0-3h5-4-4444-----0-3h5-4-4444-----0-3h5-4-4444-----------|
|-0-----------------0----------------0----------------6--8--10|

Repeat Riff F (3 Times)
Repeat Riff B (2 Times)

Riff G (2:53 - 3:14)
|--------------------------------------------------------------|
|--------------------------------------------------------------|
|--------------------------------------------------------------|
|-5---5--5/8---8--8\3---3--3/10-------5---5--5/8---8--8\333-3-3|

|---------|
|---------|
|---------|
|-333-3-3-|

Repeat Riff G (1 Time)

Riff H (3:14 - END)
|----------------------------------------------------|
|----------------------------------------------------|
|----------------------------------------------------|
|--333-3-3-333-3-3--333-3-3-333-3-3--333-3-3-333-3-3-|

Check Out Death Warp, With More Transcriptions On It:
 http://tiger.towson.edu/~dalvis1
Comments