In Flames - Clayman Chords & Tabs

 

Clayman Chords & Tabs

In Flames Chords & Tabs

Version: 1 Type: Bass Tab 1 rating
1 star 2 stars 3 stars 4 stars 5 stars
comments

Clayman Bass Tab

		      In Flames - Clayman

As played by Peter Iwers of In Flames on their album, "Clayman"
Tabbed by Rainer Weber 
(mail any corrections or comments to rainerweber@yahoo.com)

INTRO (0:00 - 0:22)
Eb|-------------------------------------------------------------
Bb|-------------------------------------------------------------
F|--------------------------------------------------------------
C|-5---5--5/8---8--8\3---3--3/10-------5---5--5/8---8--8\333-3-3

---------|
---------|          x 2
---------|
-333-3-3-|

VERSE 1 (0:23 - 0:44)
Eb|-------------------------------------------------------------
Bb|-------------------------------------------------------------
F|--------------------------------------------------------------
C|-222-2-2-222-2-2-555-5-5-555-5-5-222-2-2-222-2-2-555-5-5-000--

----|
----|          x 2
----|
3-33|

PRECHORUS (0:44 - 0:55)
E|----------------------------------|
B|----------------------------------|
F|-4---34543--6---56765-------------|          x 2
C|---4----------6-------6/\/\/15----|

VERSE 1 (0:55 - 1:16)
Eb|-------------------------------------------------------------
Bb|-------------------------------------------------------------
F|--------------------------------------------------------------
C|-222-2-2-222-2-2-555-5-5-555-5-5-222-2-2-222-2-2-555-5-5-000--

----|
----|          x 2
----|
3-33|

PRECHORUS (1:17 - 1:28)
Eb|----------------------------------|
Bb|----------------------------------|
F|-4---34543--6---56765--------------|          x 2
C|---4----------6-------6/\/\/15-----|
[ Tab from: http://www.guitartabs.cc/tabs/i/in_flames/clayman_btab.html ]
CHORUS (1:28 - 1:47)
Eb|-------------------------------------------------------------
Bb|-------------------------------------------------------------
F|--------------------------------------------------------------
C|-5---5--5/8---8--8\3---3--3/10-------5---5--5/8---8--8\333-3-3

---------------------------------------------------------------|
---------------------------------------------------------------|         
---------------------------------------------------------------|
-333-3-3--5---5--5/8---8--8\3---3--3/10-------5---5--5/8---8--8|

VERSE 2 (1:47 - 2:31)
Eb|------------------------------------------------------------|
Bb|------------------------------------------------------------|
F|----0-3h5-4-4444-----0-3h5-4-4444-----0-3h5-4-4444-----------| x 4
C|-0-----------------0----------------0----------------6--8--10|

VERSE 1 (2:31 - 2:53)
Eb|-------------------------------------------------------------
Bb|-------------------------------------------------------------
F|--------------------------------------------------------------
C|-222-2-2-222-2-2-555-5-5-555-5-5-222-2-2-222-2-2-555-5-5-000--

----|
----|          x 2
----|
3-33|

CHORUS (2:53 - 3:14)
Eb|-------------------------------------------------------------
Bb|-------------------------------------------------------------
F|--------------------------------------------------------------
C|-5---5--5/8---8--8\3---3--3/10-------5---5--5/8---8--8\333-3-3

---------|
---------|          x 2
---------|
-333-3-3-|

OUTRO (3:14 - END)
E|----------------------------------------------------|
B|----------------------------------------------------|
F|----------------------------------------------------|
C|--333-3-3-333-3-3--333-3-3-333-3-3--333-3-3-333-3-3-|

Comments