In Flames - Bullet Ride Chords & Tabs

 

Bullet Ride Chords & Tabs

In Flames Chords & Tabs

Version: 3 Type: Tab 0 ratings
1 star 2 stars 3 stars 4 stars 5 stars
comments

Bullet Ride Tab

   
                              BULETTE RIDE
                             par: IN FLAMES


guitar #1
[ Tab from: http://www.guitartabs.cc/tabs/i/in_flames/bullet_ride_tab_ver_3.html ]
RIFF a
|------------------------------------------------|
|------------------------------------------------|
|---2-2-2-2-------2-2-2-2-------2-2--------------|
|---2-2-2-2-------2-2-2-2-------2-2--------------|
|------------0-0-----------0-0-------0-0---------|
|------------------------------------------------|
RIFF b
|------------------------------------------------|
|------------------------------------------------|
|---4-4-4-4-------4-4-4-4-------4-4--------------|
|---2-2-2-2-------2-2-2-2-------2-2--------------|
|------------0-0-----------0-0-------0-0---------|
|------------------------------------------------|
RIFF c
|------------------------------------------------|
|------------------------------------------------|
|---5-5-5-5-------5-5-5-5-------5-5--------------|
|---3-3-3-3-------3-3-3-3-------3-3--------------|
|------------0-0-----------0-0-------0-0---------|
|------------------------------------------------|
RIFF d
|------------------------------------------------|
|------------------------------------------------|
|---4-4-4-4-------4-4-4-4-------4-4--------------|
|---5-5-5-5--5-5--5-5-5-5--5-5--5-5--5-5---------|
|-----------------------------------------5---8--|
|-----------------------------------------5---8--|
 répète le RIFF a,b,c
RIFF e
|------------------------------------------------|
|-----------------------3--3---------------------|
|---4-4-4-4-------4-4---4--4---------------------|
|---5-5-5-5-------5-5---5--5---------------------|
|------------0-0--------------0-0--5---8---------|
|----------------------------------5---8---------|
la sa fait sa dans la toune...
guitar #1 RIFF f
|----------------------------------------------------------------|
|-------2----------2------3---2----------2----------2----------2-|
|---2----------2--------4------------2----------2----------4-----|
|-4---4------4---4-----------------4---4------4---4------2---2---|
|----------------------------------------------------------------|
|----------------------------------------------------------------|
guitar # 2 RIFF f
|-------------------------2---0----------------------------------|
|-------2----------2----0---0------------2----------2----------2-|
|---2----------2---------------------2----------2----------4-----|
|-4---4------4---4-----------------4---4------4---4------2---2---|
|----------------------------------------------------------------|
|----------------------------------------------------------------|
RIFF g (répète 2 fois de suite)
|-----------------------------------------------------------------------|
|-----------------------------------------------------------------------|
|---17---16--9---17---16--9-9----10--10--9-10--10-12-12-14-14-16-16-17--|
|-----------------------------------------------------------------------|
|---15---14--7---15---14--7-7-----8---8--7--8---8-10-10-12-12-14-14-15--|
|-----------------------------------------------------------------------|

a et puis,désoler si dans le RIFF (g) a la quatrième corde..il y a un trou,je ne sais pas pourquoi,
je ne pouvais plus metttre de --- comme     d'habitude..désoler..
pour le reste.....bin..ca recommence une fois o moin toute ce que j'ai ecrit..



crée par: VINCENT GAUVREAU
Comments