In Flames - Bullet Ride Chords & Tabs

 

Bullet Ride Chords & Tabs

In Flames Chords & Tabs

Version: 1 Type: Tab 0 ratings
1 star 2 stars 3 stars 4 stars 5 stars
comments

Bullet Ride Tab

in flames: bullet ride
andrew g  ajdre5252@hotmAIL.COM
i know alot of people have been looking for these
tabs, so ill submit a few.



intro
e----------------------------------------------------------------
b----------------------------------------------------------------
g-------------------777xx777xx777xx--888xx888xx888---------------
d--555xx555xx555xx--777xx777xx777xx--888xx888xx888--333xx333--6-- X3
a--555xx555xx555xx--555xx555xx555xx--666xx666xx666--333xx333--6--
E--333xx333xx333xx----------------------------------111xx111--4--



Verse
e-------5-----5-------10--8-------5-----5-------5---------
b-----6-----6-------8-----------6-----6-------8-----------
g---7-----7-------------------7-----7-------5-------------
d---------------------------------------------------------   x2
a---------------------------------------------------------
E---------------------------------------------------------


[ Tab from: http://www.guitartabs.cc/tabs/i/in_flames/bullet_ride_tab.html ]
refrain guitar 1
e---6-5---6-5---------------------------------------
b-------3-----3-3-4-4-4-4-4-4-4-4-6-8-10--11*-------
g--------------------------------------------------- X2;*only play the
d--------------------------------------------------- 11 on 2nd time.
a---------------------------------------------------
E---------------------------------------------------

refrain guitar 2
e---------------------------------------------------
b---------------------------------------------------
g--7777x-7777-77--55555555-5-7-8-10-----------------
d--7777x-7777-77--55555555-5-7-8-10-----------------
a--5555x-5555-55--33333333-3-5-6-8------------------
E---------------------------------------------------


chorus
e------------------1/31---------------------------------------1-2--
b--3-1-------------------3--4let ring---3-1----------------3-4------
g------3-3/53--2---------------------------3-3/53-2--3-5----------    
d------------------------------------------------------------------- x2
a-------------------------------------------------------------------
E-------------------------------------------------------------------

if anyone has the solo please email me ajdre5252@hotmail.com.
thanks
Comments