In Flames - Bottled Chords & Tabs

 

Bottled Chords & Tabs

In Flames Chords & Tabs

Version: 1 Type: Bass Tab 0 ratings
1 star 2 stars 3 stars 4 stars 5 stars
comments

Bottled Bass Tab

"Bottled" - In Flames 
From the album "Soundtrack to your Escape"

Tabbed by Isthar

Tuning: G#|--------|
        D#|--------|
        A#|--------|
        F |--------| 
        A#|--------|

Intro 1
|-----------------|
|-----------------|
|-----------------|
|--5--------------| x3
|----05735870353--|

Intro 2
|---------------|
|---------------|
|---------------|
|--5------------| x1
|----057358703~-|

Intro 1  x3
Intro 2  x3

Verse 1
|--------------------|
|--------------------|
|--------------------|
|----5---5---5---10--|  x8
|--00--00--00--88----|

Pre-Chorus
|-------------------|
|-------------------|
|-------------------|
|--555-555-333-777--|  x4
|-------------------|

Chorus 1 
|----------------------------------------------------------------|
|----------------------------------------------------------------|
|----------------------------------------------------------------| 
|------------------------555-55-888-88-888-----------------------|
|--333-33-7-7-7-777-777---------------------333-333-7-7-777-777--|

Intro 1  x1
Intro 2  x1
Verse 1  x4
[ Tab from: http://www.guitartabs.cc/tabs/i/in_flames/bottled_btab.html ]
Chorus 2
|-------------------------------------------|
|-------------------------------------------|
|-------------------------------------------|
|------------------------555-55-------------|  x2
|--333-33-7-7-7-777-777---------888-88-888--|

Pre-Chorus  x2

Guitar solo part 1
|--------------------------------------|
|--------------------------------------|
|--------------------------------------|
|--5-5-8-3--1-1---3--5-5-8-3--1-1---3--|
|---------------5-----------------5----|

|-----------------------------------------|
|-----------------------------------------|
|-----------------------------------------|
|-----------4-4-1-6-----------4-4-1-6-----|
|--3-3-6-1-----------3-3-6-1----------0~~-|

|--R----|
|--E----|
|--S----|
|--T----|
|-------|

Chorus 2  x4

Guitar solo part 2
|-----------------------------------------------|
|-----------------------------------------------|
|-----------------------------------------------|
|-----------4-4-1-6--------------------4-4-1-6--|
|--3-3-6-1-----------3-3-6-1--3-3-6-1-----------|

Intro 1  x3
Intro 2  x1

That's it!! Please rate!!
Comments