Impossibles - Eightball Chords & Tabs

 

Eightball Chords & Tabs

Impossibles Chords & Tabs

Version: 2 Type: Bass Tab 0 ratings
1 star 2 stars 3 stars 4 stars 5 stars
comments

Eightball Bass Tab

Band: The Impossibles
Song: Eightball
Bassist:Craig
Tabbed by: James Bradley

I love this song.  It's one of the best I've ever learned.

> means strum

Intro/Chorus:
G---------------------------------------------------------
D---------------------------------------------------------
A-----2>-3>-0>-1>----2>-1>-0>-----------------------------
E--3>-------------3>----------4>--------------------------
[ Tab from: http://www.guitartabs.cc/tabs/i/impossibles/eightball_btab_ver_2.html ]
Verse:
G----------4---4------------------------------------------
D----5---5---------1--------2---11-3-1-00-4-0-------------
A------------2---2---2-33-3---3---------------------------
E--3---3--------------------------------------------------

"Star Wars" part:
G---------------------------------------------------------
D---------------------------------------------------------
A--------------0h1-0h1-0----------------------------------
E--0h3-0-0h3-0-----------3-0------------------------------

G---------------------------------------------------------
D------------------------0-0-0-0--------------------------
A--------------0h1-0-1-0----------------------------------
E--0h3-0-0h3-0--------------------------------------------
Comments