Imperial Teen - Million Dollar Man Chords & Tabs

 

Million Dollar Man Chords & Tabs

Imperial Teen Chords & Tabs

Version: 1 Type: Tab 0 ratings
1 star 2 stars 3 stars 4 stars 5 stars
comments

Million Dollar Man Tab

   
Million Dollar Man
By Imperial Teen
Tabbed by Robert Tabb
tenpercenter@catholic.org
Correcions, additions, and suggestions are all appreciated
----------------------------------------------------------

The chord progression to this song is simply this:
[ Tab from: http://www.guitartabs.cc/tabs/i/imperial_teen/million_dollar_man_tab.html ]
    A     D
e|--0-----2--|
B|--2-----3--|
G|--2-----2--|
D|--2-----0--|
A|--0--------|
E|-----------|

the only other guitar part in the song goes like this

e|----------------------------|
B|----------------------------|
G|----------------------------|
D|--4-5-4-5-4\2-2--2-4-2-4-0--|
A|----------------------------|
E|----------------------------|

If you want the lyrics go to www.imperialteen.com
Comments