Imperial Teen - Lipstick Chords & Tabs

 

Lipstick Chords & Tabs

Imperial Teen Chords & Tabs

Version: 1 Type: Tab 0 ratings
1 star 2 stars 3 stars 4 stars 5 stars
comments

Lipstick Tab

Lipstick
By Imperial Teen
Tabbed by Robert Tabb
wrt2@students.uwf.edu

intro/verse
e|------------------------------------------------------|
B|------------------------------------------------------|
G|------------------------------------------------------|
D|------------------------------------------------------|
A|------------------------------------------------------|
E|--0--0--0--0--10--10--10--10--9--9--9--9--7--7--7--7--|

Chorus:
e|------------------------------------------------------|
B|------------------------------------------------------|
G|------------------------------------------------------|
D|------------------------------------------------------|
A|------------------------------------------------------|
E|--0--0--0--0--0--0--0--0--0--0--0. . . .etc. . ./slide
[ Tab from: http://www.guitartabs.cc/tabs/i/imperial_teen/lipstick_tab.html ]
e|------------------------------------------------------|
B|------------------------------------------------------|
G|------------------------------------------------------|
D|------------------------------------------------------|
A|------------------------------------------------------|
E|--5--5--5--5--5--5--5--5--. . . etc. . . 



There is another guitar in there that plays a 
different variation of the chorus riff.  It's higher pitched.
I usually play it as:
e|------------------------------------------------------|
B|------------------------------------------------------|
G|--4--4--4--4--4-------9--9--9--9--9-------------------|
D|--2--2--2--2--2. . .--7--7--7--7--7. . .--------------|
A|------------------------------------------------------|
E|------------------------------------------------------|

There is a simple lead part in the beginning but when I
play it I just improvise, I don't know how it actually goes.
It doesn't matter too much I've found, it's basically just noise.

If you have comments or corrections email me above.

-Robert



Comments