Imperial State Electric - More Than Enough Of Your Love Chords & Tabs

 

More Than Enough Of Your Love Chords & Tabs

Imperial State Electric Chords & Tabs

Version: 1 Type: Tab 0 ratings
1 star 2 stars 3 stars 4 stars 5 stars
comments

More Than Enough Of Your Love Tab

   
'MORE THAN ENOUGH OF YOUR LOVE' by Imperial State Electric
Album: Reptile Brain Music
Submitted by: Victor (vctrklndr[a]hotmail.com)

Tuning: Half step down (Eb Ab Db Gb Bb Eb)

        6  5  4  3  2  1
        E  A  D  G  B  E
Chords:
E5:     x  x  2  4  x  x
F#5:    x  x  4  6  x  x
G#5:    x  x  5  7  x  x
A#5:    x  x  7  9  x  x


Listen to the song for correct timing etc. Hope my transcription makes sense. Enjoy!

INTRO:

GTR I:
e|--------------------------------------------|
B|--------------------------------------------|
G|-9/11-11-11--9/11-11-11--9/11-11-11---7---9-|
D|-7/9--9--9---7/9--9--9---7/9--9--9----5-7-7-| x2
A|----------------------------------------5---|
E|--------------------------------------------|

GTR II:
e|----------------------------------|
B|----------------------------------|
G|----------------------------7---9-|
D|----------------------------5-7-7-| x2
A|-7/9-9-9--7/9-9-9--7/9-9-9----5---|
E|-5/7-7-7--5/7-7-7--5/7-7-7--------|



VERSE:
 Your love...
e|----------------------------------|
B|----------------------------------|
G|----------------------------7---9-|
D|----------------------------5-7-7-| x2
A|-7/9-9-9--7/9-9-9--7/9-9-9----5---|
E|-5/7-7-7--5/7-7-7--5/7-7-7--------|


PRE-CHORUS:

E5         F#5
I hear you loud through the wire
G5                A5
Whatever happened to the fire
E5                          F#5
This ain't exactly what I'm thinking of
G5
You know I've had
     A5
More than enough of your love


CHORUS:
More than enough of your love...
e|-------------------------------------------------|
B|-------------------------------------------------|
G|----------7---9-----------7---9-----------7---9--|
D|----------5-7-7-----------5-7-7-----------5-7-7--|
A|-7/9-9-9----5----7/9-9-9----5----7/9-9-9----5----|
E|-5/7-7-7---------5/7-7-7---------5/7-7-7---------|

e|-------------------------------------------------|
B|-------------------------------------------------|
G|-----7-7-7p4-------7-7-7p4-------7-7-7p4---7---9-|
D|-------------7-------------7-------------7-5-7-7-|
A|-7/9-----------7/9-----------7/9-------------5---|
E|-5/7-----------5/7-----------5/7-----------------|


VERSE:
 His love...
e|----------------------------------|
B|----------------------------------|
G|----------------------------7---9-|
D|----------------------------5-7-7-| x2
A|-7/9-9-9--7/9-9-9--7/9-9-9----5---|
E|-5/7-7-7--5/7-7-7--5/7-7-7--------|


PRE-CHORUS:

E5         F#5
I hear you loud through the wire
G5                A5
Whatever happened to the fire
E5                          F#5
This ain't exactly what I'm thinking of
G5
You know I've had
     A5
More than enough of your love

[ Tab from: http://www.guitartabs.cc/tabs/i/imperial_state_electric/more_than_enough_of_your_love_tab.html ]
CHORUS:
More than enough of your love...
e|-------------------------------------------------|
B|-------------------------------------------------|
G|----------7---9-----------7---9-----------7---9--|
D|----------5-7-7-----------5-7-7-----------5-7-7--|
A|-7/9-9-9----5----7/9-9-9----5----7/9-9-9----5----|
E|-5/7-7-7---------5/7-7-7---------5/7-7-7---------|

e|-------------------------------------------------|
B|-------------------------------------------------|
G|-----7-7-7p4-------7-7-7p4-------7-7-7p4---7---9-|
D|-------------7-------------7-------------7-5-7-7-| x2
A|-7/9-----------7/9-----------7/9-------------5---|
E|-5/7-----------5/7-----------5/7-----------------|

PRE-SOLO:

e|-------------------------------------------------|
B|-------------------------------------------------|
G|-----7-7-7p4-------7-7-7p4-------7-7-7p4---7---9-|
D|-------------7-------------7-------------7-5-7-7-| 
A|-7/9-----------7/9-----------7/9-------------5---|
E|-5/7-----------5/7-----------5/7-----------------|

e|-----7-7-7p5-------7-7-7p5-------7-7-7p5---------|
B|-------------7-------------7-------------7-------|
G|-------------------------------------------7---9-|
D|-------------------------------------------5-7-7-|
A|-7/9-----------7/9-----------7/9-------------5---|
E|-5/7-----------5/7-----------5/7-----------------|

e|-----x-x-x-x-x-x-x-x-----x-x-x-x-x-x-x-x-----x-x-x-x-----x-x-x-x-----x-x-----------|
B|-----x-x-x-x-x-x-x-x-----x-x-x-x-x-x-x-x-----x-x-x-x-----x-x-x-x-----x-x-----------|
G|-9-9-x-x-x-x-x-x-x-x-9-9-x-x-x-x-x-x-x-x-9-9-x-x-x-x-----x-x-x-x-9-9-x-x-9-9-9-9-9-|
D|-9-9-x-x-x-x-x-x-x-x-9-9-x-x-x-x-x-x-x-x-9-9-x-x-x-x-9-9-x-x-x-x-9-9-x-x-9-9-9-9-9-|
A|-7-7-x-x-x-x-x-x-x-x-7-7-x-x-x-x-x-x-x-x-7-7-x-x-x-x-7-7-x-x-x-x-7-7-x-x-7-7-7-7-7-|
E|-----x-x-x-x-x-x-x-x-----x-x-x-x-x-x-x-x-----x-x-x-x-----x-x-x-x-----x-x-----------|


SOLO:
e|--------------------------------------10p7----10p7----10p7--------------------10b12-10-|
B|--------------------------10b12-10b12------10------10------10b12-10--10b12-10----------|
G|-9b11-9b11-9b11p7-------7--------------------------------------------------------------|
D|------------------9-7h9----------------------------------------------------------------|
A|---------------------------------------------------------------------------------------|
E|---------------------------------------------------------------------------------------|

e|-------17-----------17----|
B|-17b19----17--17b19----17-|
G|--------------------------|
D|--------------------------|
A|--------------------------|
E|--------------------------|


CHORUS:
More than enough of your love...
e|-------------------------------------------------|
B|-------------------------------------------------|
G|----------7---9-----------7---9-----------7---9--|
D|----------5-7-7-----------5-7-7-----------5-7-7--|
A|-7/9-9-9----5----7/9-9-9----5----7/9-9-9----5----|
E|-5/7-7-7---------5/7-7-7---------5/7-7-7---------|

e|-----------------------------------------------------|
B|-----------------------------------------------------|
G|-----7-7-7p4-------7-7-7p4-------7-7-7p4---7---9-----|
D|-------------7-------------7-------------7-5-7-7-----|
A|-7/9-----------7/9-----------7/9-------------5---7/9-|
E|-5/7-----------5/7-----------5/7-----------------5/7-|
Comments