Impaled Nazarene - Zero Tolerance Chords & Tabs

 

Zero Tolerance Chords & Tabs

Impaled Nazarene Chords & Tabs

Version: 1 Type: Tab 0 ratings
1 star 2 stars 3 stars 4 stars 5 stars
comments

Zero Tolerance Tab

Artist: Impaled Nazarene
Title:  Zero Tolerance
Album:  Nihil

Tabbed by elc (elc@poczta.onet.pl;elc@o2.pl)

Intro,                      1,2,3  4th time
e|-------------------------|------|----------------|
B|-------------------------|------|----------------|
G|-------------------------|------|----------------|
D|-9---9-9---9-9-9-9-9-9-9-|-7--7-|-9-9-9-9-9-9----|
A|-7---7-7---7-7-7-7-7-7-7-|-5--5-|-7-7-7-7-7-7----|
E|-------------------------|------|----------------|
pm                                  . . . . . .

Riff 2
e|------------------------------|
B|------------------------------|
G|------------------------------|
D|-9---9-9---9-9-9-9-9-9-9-7--7-|
A|-7---7-7---7-7-7-7-7-7-7-5--5-|
E|------------------------------|

Riff 3
e|-----------------------------------------------------------------
B|-----------------------------------------------------------------
G|-----------------------------------------------------------------
D|---------------------------------7---7-7-7-7-7-7-9---9-9-9-9-9-9-
A|-2---2-2-2-2-2-2-5---5-5-5-5-5-5-5---5-5-5-5-5-5-7---7-7-7-7-7-7-
E|-0---0-0-0-0-0-0-3---3-3-3-3-3-3---------------------------------

  -----------------------------------------------------------------|
  -----------------------------------------------------------------|
  -----------------------------------------------------------------|
  -5---5-5-5-5-5-5-7---7-7-7-7-7-7-12--11--9---7---9---------------|
  -3---3-3-3-3-3-3-5---5-5-5-5-5-5-10--9---7---5---7---7-7-7-7-7-7-|
  -----------------------------------------------------------------|
                                                       . . . . . .

Riff 2
e|------------------------------|
B|------------------------------|
G|------------------------------|
D|-9---9-9---9-9-9-9-9-9-9-7--7-|
A|-7---7-7---7-7-7-7-7-7-7-5--5-|
E|------------------------------|

Riff 3
e|-----------------------------------------------------------------
B|-----------------------------------------------------------------
G|-----------------------------------------------------------------
D|---------------------------------7---7-7-7-7-7-7-9---9-9-9-9-9-9-
A|-2---2-2-2-2-2-2-5---5-5-5-5-5-5-5---5-5-5-5-5-5-7---7-7-7-7-7-7-
E|-0---0-0-0-0-0-0-3---3-3-3-3-3-3---------------------------------

  -----------------------------------------------------------------|
  -----------------------------------------------------------------|
  -----------------------------------------------------------------|
  -5---5-5-5-5-5-5-7---7-7-7-7-7-7-12--11--9---7---9---------------|
  -3---3-3-3-3-3-3-5---5-5-5-5-5-5-10--9---7---5---7---7-7-7-7-7-7-|
  -----------------------------------------------------------------|
                                                       . . . . . .

Riff 4 
Guitar1, tremolo picking:
e|----------------------------------|
B|----------------------------------|
G|----------------------------------|
D|-9-12119-7-------9-12119-7-----7--|
A|-7-109-7-5---9---7-109-7-5-----5--|
E|-------------7--------------------|
[ Tab from: http://www.guitartabs.cc/tabs/i/impaled_nazarene/zero_tolerance_tab.html ]
Guitar2, palm muted:
e|----------------------------------|
B|----------------------------------|
G|----------------------------------|
D|-9---9---9---7-7-9---9---9---7-7--|
A|-7---7---7---5-5-7---7---7---5-5--|
E|----------------------------------|
pm .  .    .   . . .   .   .   . .

Riff 5, tremolo picking
e|------------------------------------------------------------------|
B|------------------------------------------------------------------|
G|------------------------------------------------------------------|
D|-9-12119-7-------9-12119-12------9-12119-7-------9-12119-8--------|
A|-7-109-7-5---9---7-109-7-10------7-109-7-5---9---7-109-7-6--------|
E|-------------7-------------------------------7--------------------|

Riff 6
e|-----------------|
B|-----------------|
G|-----------------|
D|-5-------7-------|
A|-3-------5-------|
E|-----------------|

Riff 2
e|------------------------------|
B|------------------------------|
G|------------------------------|
D|-9---9-9---9-9-9-9-9-9-9-7--7-|
A|-7---7-7---7-7-7-7-7-7-7-5--5-|
E|------------------------------|

Riff 3
e|-----------------------------------------------------------------
B|-----------------------------------------------------------------
G|-----------------------------------------------------------------
D|---------------------------------7---7-7-7-7-7-7-9---9-9-9-9-9-9-
A|-2---2-2-2-2-2-2-5---5-5-5-5-5-5-5---5-5-5-5-5-5-7---7-7-7-7-7-7-
E|-0---0-0-0-0-0-0-3---3-3-3-3-3-3---------------------------------

  -----------------------------------------------------------------|
  -----------------------------------------------------------------|
  -----------------------------------------------------------------|
  -5---5-5-5-5-5-5-7---7-7-7-7-7-7-12--11--9---7---9---------------|
  -3---3-3-3-3-3-3-5---5-5-5-5-5-5-10--9---7---5---7---7-7-7-7-7-7-|
  -----------------------------------------------------------------|
pm                                                     . . . . . .

Riff 6
e|-----------------|
B|-----------------|
G|-----------------|
D|-5-------7-------|
A|-3-------5-------|
E|-----------------|

Riff 2
e|------------------------------|
B|------------------------------|
G|------------------------------|
D|-9---9-9---9-9-9-9-9-9-9-7--7-|
A|-7---7-7---7-7-7-7-7-7-7-5--5-|
E|------------------------------|

Riff7 - sorry for "?" but I've no idea, how to play this part :(
e|-------------------------------------------------
B|-------------------------------------------------
G|-------------------------------2-----------------
D|-------------------------2-4-5---5-4-------------
A|-2-5-7-2-5-7-5-5-5-5-5-5-------------2-2-2-2-2-2-
E|-0-3-5-0-3-5-3-3-3-3-3-3-------------0-0-0-0-0-0-

  -------------------------------------------------|
  -------------------------------------------------|
  -------------------------------------------------|
  -------------------------------------------9-----|
  -2-5-7-2-5-7-9-9-9-9-9-9-?-?-?-?-?-?-?-?-?-7-----|
  -0-3-5-0-3-5-7-7-7-7-7-7-------------------0-----|
Comments