Impaled Nazarene - Vitutuksen Multihuipennus Chords & Tabs

 

Vitutuksen Multihuipennus Chords & Tabs

Impaled Nazarene Chords & Tabs

Version: 2 Type: Tab 0 ratings
1 star 2 stars 3 stars 4 stars 5 stars
comments

Vitutuksen Multihuipennus Tab

   
Band: Impaled Nazarene
Album: Suomi Finland Perkele
Song:  Vitutuksen Multihuipennus

Transcribed By: Pablo1349


.  - palm mute           /  - slide up to
\  - slide down to       ~  - vibrato
h  - hammer on           b  - Bend
p  - pull off            Suffixes for bend
t  - tap                 f  - full bend    h - half bend
ph - pinched harmonic    q  - quarter bend t - tap bend
*  - see comment         ^  - Hold bend    r release bend
x  - Stuccatto           ~  - vibrato bend
,  - slight palm mute    () - ghost note, sustained note
"  - tremolo note        <> - Trill

Tuning E A D G B E

|------------------------------|
|------------------------------|
|------------------------------|
|-9--------109--------8--------|
|-7--------8-7--------6--------|x8
|------------------------------|
  "        " "        "


|------------------------------------|
|------------------------------------|
|------------------------------------|
|-9--------9--------8-------8--------|
|-7--------7--------6-------6--------|x4
|------------------------------------|

|------------------------------|
|------------------------------|
|------------------------------|
|-9--------109--------8--------|
|-7--------8-7--------6--------|x4
|------------------------------|
  "        " "        "

|------------------------------------|
|------------------------------------|
|------------------------------------|
|-9-----------------8----------------|
|-7-----------------6----------------|x3
|------------------------------------|
  "                 "

|-----------------------------|
|-----------------------------|
|-----------------------------|
|-9-----------------4----6----|
|-7-----------------5----7----|
|-----------------------------|
  "                 "    "

|-------------------------------------------------------------------|
|-------------------------------------------------------------------|
|-------------------------------------------------------------------|
|-7--------9------6------7--6-------7-------9-------6------7--------|
|(9)-----(11)----(7)----(7)(7)-----(9)----(11)-----(7)----(7)-------|
|-------------------------------------------------------------------|
  "         "     "      "  "       "         "     "      "
[ Tab from: http://www.guitartabs.cc/tabs/i/impaled_nazarene/vitutuksen_multihuipennus_tab_ver_2.html ]
|--------------------------------------------------------------------|
|--------------------------------------------------------------------|
|--------------------------------------------------------------------|
|-7--------9------6------7--6-------7-------9-------6------5----6----|
|(9)-----(11)----(7)----(7)(7)-----(9)----(11)-----(7)-----4----7----|
|--------------------------------------------------------------------|
  "         "     "      "  "       "         "     "      "    "

|------------------------------|
|------------------------------|
|------------------------------|
|-9--------109--------8--------|
|-7--------8-7--------6--------|x4
|------------------------------|
  "        " "        "

|------------------------------------|
|------------------------------------|
|------------------------------------|
|-9-----------------8----------------|
|-7-----------------6----------------|x3
|------------------------------------|
  "                 "

|-----------------------------|
|-----------------------------|
|-----------------------------|
|-9-----------------4----6----|
|-7-----------------5----7----|
|-----------------------------|
  "                 "    "

|-------------------------------------------------------------------|
|-------------------------------------------------------------------|
|-------------------------------------------------------------------|
|-7--------9------6------7--6-------7-------9-------6------7--------|
|(9)-----(11)----(7)----(7)(7)-----(9)----(11)-----(7)----(7)-------|
|-------------------------------------------------------------------|
  "         "     "      "  "       "       "       "      "

|--------------------------------------------------------------------|
|--------------------------------------------------------------------|
|--------------------------------------------------------------------|
|-7--------9------6------7--6-------7-------9-------6------5----6----|
|(9)-----(11)----(7)----(7)(7)-----(9)----(11)-----(7)-----4----7----|
|--------------------------------------------------------------------|
  "         "     "      "  "       "         "     "      "    "

|-----------------------------------------------------------------|
|-----------------------------------------------------------------|
|-----------------------------------------------------------------|
|-7--------9------6------7-------7-------9-------6------5----6----|
|(9)-----(11)----(7)----(7)-----(9)----(11)-----(7)-----4----7----|x2
|-----------------------------------------------------------------|
  "         "     "      "       "       "       "      "    "

|----|
|----|
|----|
|-7--|
|(9)-|
|----|

END
Comments