Impaled Nazarene - Hardboiled And Still Hellbound Chords & Tabs

 

Hardboiled And Still Hellbound Chords & Tabs

Impaled Nazarene Chords & Tabs

Version: 1 Type: Tab 0 ratings
1 star 2 stars 3 stars 4 stars 5 stars
comments

Hardboiled And Still Hellbound Tab

   
Impaled Nazarene - "Hardboiled And Still Hellbound"
From the album Absence Of War Does Not Mean Peace


Transcribed by Mark Straughen
Suggestions and Corrections to: Straughenfamily@aol.com




Tablature Notation
------------------
..  - palm mute                 /  - slide up to
\  - slide down to              ~  - vibrato
h  - hammer on                  b  - bend
p  - pull off                   Suffixes for bend
ph - pinch harmonic             f - full bend    h - half bend
*  - see comment                r - release      t - tap bend
X  - percussion mute            ~ - vibrato bend
@  - slight palm mute           () - ghost note, sustained note
"  - tremolo pick





Normal Tuning


Intro Riff
|--------------------------------------------------------------|Gtr1
|--------------------------------------------------------------|
|-------------7------------------------------------------------|
|----7--9-9-7-5-7-9-----------------9-9-7-5-4/5--------------7-|
|-7--5--7-7-5---5-7-------010-------7-7-5-3-2/3-5--------7-7-5-|
|-5-----------------000003---30000--------------3-333333-5-5---|            
|                   ..............                ...... . .
|
|
|
|--------------------------------------------------------------|Gtr2
|--------------------------------------------------------------|
|-------10b(12)r10-9--7-7-7----------------7-------------------|
|---------------------------9ph--------------10-9-9-10-9-7~----|
|-----------------------------------7-9-10---------------------|
|--------------------------------------------------------------|
|
|
|
|
|--------------------------------------------------------------|Gtr3
|--------------------------------------------------------------|
|-------10b(12)r10-9--7-7-7----------------7-------------------|
|---------------------------9ph--------------10-9-9-10-9-7~----|
|-----------------------------------7-9-10---------------------|
|--------------------------------------------------------------|






|-----------------------------------------------------------------|Gtr1
|-----------------------------------------------------------------|
|-------7---------------------------------------------------------|
|-9-9-7-5-7-9----------------9-9-7-5-4/5--------------7-----------|
|-7-7-5---5-7-------010------7-7-5-3-2/3-5--------7-7-5-----------|
|-------------000003---30000-------------3-333333-5-5-------------|            
|             ..............               ...... . .
|
|
|
|--------------------------------------------------7-8-7----------|Gtr2
|-8--7-8-10--8-10-12--10-12-----------------7-8-10-------10-7-8\--|
|------------------------------------5-7-9------------------------|
|-------------------------------579-------------------------------|
|---------------------------579-----------------------------------|
|-----------------------------------------------------------------|
|                           ...... 
|
| 
|                           *these are 7's 9's and 10's                          
|-----------------------------------------------------------------|Gtr3
|--------------------------------------------------8-10-8---------|
|-9--7-9-11--9-11-12--11-12-----------------7-9-11--------11-7-9\-|
|------------------------------------7-9-10-----------------------|
|-------------------------------7910------------------------------|
|---------------------------7910----------------------------------|
                            ... ...








[ Tab from: http://www.guitartabs.cc/tabs/i/impaled_nazarene/hardboiled_and_still_hellbound_tab.html ]
Riff A
|------------------------------------------------------------------|Gtr1
|------------------------------------------------------------------|
|------------------------------------------------------------------|
|------------------------------------------------------------------|
|-2-22-22-5---10-2-2-22-22-5---7/8-2-22-22-5-22-22-2-3-2-6\5-8\7-3-|
|-0-00-00-3-0--8-0-0-00-00-3-0-5/6-0-00-00-3-00-00-0-1-0-4\3-6\5-1-|
| . .. .. . .  . . . .. .. . .     . .. .. . .. ..
|
|
|
|------------------------------------------------------------------|Gtr2
|------------------------------------------------------------------|
|------------------------------------------------------------------|
|------------------------------------------------------------------|
|-2----------------------------7/8-2---------------2-3-0-6\5-8\7-3-|
|-0-00-00-3--00-00-0-00-00-3-0-5/6-0-00-00-3-00-00-0-1-0-4\3-6\5-1-|










Riff B
|-------------------------------------------------------|Gtr1
|-------------------------------------------------------|
|-------7-----------------------------------------------|
|-9-9-7-5-7-9----------------9-9-7-5-4/5--------------7-|
|-7-7-5---5-7-------010------7-7-5-3-2/3-5--------7-7-5-|
|-------------000003---30000-------------3-333333-5-5---|            
|             ..............               ...... . .
|
|
|
|-------------------------------------------------------|Gtr2
|-------------------------------------------------------|
|-------7-----------------------------------------------|
|-9-9-7-5-7-9----------------9-9-7-5-4/5--------------7-|
|-7-7-5---5-7-------010------7-7-5-3-2/3-5-555555-7-7-5-|
|-------------000003---30000-------------3-333333-5-5---|            
              ..............                      . .






Then play Riff A






Riff C Intro
|-----|---------------------------------------------------------|Gtr1
|-----|---------------------------------------------------------|
|-----|---------------------------------------------------------|
|-----|----------------------------------------------10-7-10-9\-|
|--2--|------------------7/8-7-5-2--------------------8-5--8-7\-|
|--0--|------------------5/6-5-3-0------------------------------|
|
|
|
|
|
|-----|---------------------------------------------------------|Gtr2
|-----|---------------------------------------------------------|
|-----|----------------------------------------7-7-7------------|
|-----|-7-9-10-9-7-9---------------7-9-10-9-10-5-5-5-10-7-10----|
|--2--|-5-7--8-7-5-7-----7/8-7-5-2-5-7--8-7--8--------8-5--8----|
|--0--|--------------3-5-5/6-5-3-0------------------------------|






|---------------------------------------------------------|Gtr1
|---------------------------------------------------------|
|----------------------------------------7----------------|
|----------------------------------------5-555555-10-7-10-|
|------------------7/8-7-5-2-----------------------8-5--8-|
|------------------5/6-5-3-0------------------------------|
|                                          ......
|
|
|
|---------------------------------------------------------|Gtr2
|---------------------------------------------------------|
|----------------------------------------7----------------|
|-7-9-10-9-7-9---------------7-9-10-9-10-5-555555-10-7-10-|
|-5-7--8-7-5-7-----7/8-7-5-2-5-7--8-7--8-----------8-5--8-|
|--------------3-5-5/6-5-3-0------------------------------|
                                           ......







Riff C
|---------------------------------------------------------|-----|Gtr1&2
|---------------------------------------------------------|-----|
|----------------------------------------7----------------|-----|
|-7-9-10-9-7-9---------------7-9-10-9-10-5-555555-10-7-10-|--9--|
|-5-7--8-7-5-7-----7/8-7-5-2-5-7--8-7--8-----------8-5--8-|--7--|
|--------------3-5-5/6-5-3-0------------------------------|-----|
                                           ......




|---------|Gtr1&2
|---------|
|---------|
|--5-4-3--|
|--5-4-3--|
|--3-2-1--|





Then play Riff B
Then play Riff A







Riff D Intro
|----------------------------------------------------------------------|Gtr1&2
|----------------------------------------------------------------------|
|-6-7-8-9--6-7-8-9--6-7-8-9--6-7-8-------------------------------------|
|-6-7-8-9--6-7-8-9--6-7-8-9--6-7-8-9--6-7-8-9--6-7-8-9--6-7-8-9--6-7-8-|
|-4-5-6-7--4-5-6-7--4-5-6-7--4-5-6-7--4-5-6-7--4-5-6-7--4-5-6-7--4-5-6-|
|----------------------------------------------------------------------|




Riff D
|-------------------------------------------------------|Gtr1&2
|-------------------------------------------------------|
|-------------------------------------------------------|
|--------------------------------------------7----------|
|-2--5-7-7/8-7-5-7-5-2-5-2--2--5-7-7/8-7-5-7-5-9--------|
|-0--3-5-5/6-5-3-5-3-0-3-0--0--3-5-5/6-5-3-5---7-777777-|






|------------------------------|Gtr1&2
|------------------------------|
|------------------------------|
|----------------------5-4-3-2-|
|-2--5-7-7/8-7-5-7-5-2-5-4-3-2-|
|-0--3-5-5/6-5-3-5-3-0-3-2-1-0-|
                       . . . .
Comments