Impaled Nazarene - Absence Of War Does Not Mean Peace Chords & Tabs

 

Absence Of War Does Not Mean Peace Chords & Tabs

Impaled Nazarene Chords & Tabs

Version: 1 Type: Tab 0 ratings
1 star 2 stars 3 stars 4 stars 5 stars
comments

Absence Of War Does Not Mean Peace Tab

   
Band: Impaled Nazarene
Album: Absence Of War Does Not Mean Peace
Song: Absence Of War Does Not Mean Peace

Transcribed By: pablo1349



.  - palm mute           /  - slide up to
\  - slide down to       ~  - vibrato
h  - hammer on           b  - Bend
p  - pull off            Suffixes for bend
t  - tap                 f  - full bend    h - half bend
ph - pinched harmonic    q  - quarter bend t - tap bend
*  - see comment         ^  - Hold bend    r release bend
x  - Stuccatto           ~  - vibrato bend
,  - slight palm mute    () - ghost note, sustained note
"  - tremolo note        <> - Trill

Tunning E A D G B E

Intro
e:----------------------------|
b:----------------------------|
g:--------------------2-------|
d:-3---3333-33--------2-----5-|x3
a:-3---3333-33--2h3p2-0-----5-|
e:-1---1111-11--------------3-|


e:--------------------|------------------------------------------|
b:--------------------|------------------------------------------|
g:--------------------|-----------------5--5---------------------|
d:-3---3333-33--------|2----2----2------3--3-2----2------6-6653--|x2
a:-3---3333-33--2h3p2-|0-0000-0000-0000------0-0000-0000-4-4431--|
e:-1---1111-11--------|------------------------------------------|
                         .... .... ....        .... .... . ....

Riff 1a
[ Tab from: http://www.guitartabs.cc/tabs/i/impaled_nazarene/absence_of_war_does_not_mean_peace_tab.html ]
e:-----------------------------------------------|   -------------------|
b:-----------------------------------------------|   -------------------|
g:------------------5--5-------------5---5-5-4-4-|   -------------------|
d:-2----2----2------3--3-2----2------3---3-3-2-2-|x4 -6----6----6-6-5-3-|
a:-0-0000-0000-0000------0-0000-0000-------------|   -4-4444-4444-4-3-1-|
e:-----------------------------------------------|   -------------------|
     .... .... ....         .... ....                  . .... .... . . .

Riff 1b

e:-----------------------------------------------| --------------------------|
b:-----------------------------------------------| --------------------------|
g:------------------5--5-------------5---5-5-4-4-| ------------------5-5-7-7-|
d:-2----2----2------3--3-2----2------3---3-3-2-2-|x4 ----2----2----2-3-3-5-5-|
a:-0-0000-0000-0000------0-0000-0000-------------| -0-0000-0000-0000---------|
e:-----------------------------------------------|---------------------------|
     .... .... ....         .... ....                  .... .... ....

Riff 2 (Chorus)

e:-------------------------------------------------|
b:-------------------------------------------------|
g:-------------------------2-2-2-2-2-2-2-2-2-2-2-2-|
D:-3-3-3-3-3-3-3-3-3-3-3-3-2-2-2-2-2-2-2-2-2-2-2-2-|x4
A:-3-3-3-3-3-3-3-3-3-3-3-3-0-0-0-0-0-0-0-0-0-0-0-0-|
e:-1-1-1-1-1-1-1-1-1-1-1-1-------------------------|



Estructure:
Intro
Riff 1a
Riff 1b
Riff 2(x4)
Riff 1a
Riff 1b
Riff 2(x4)
Riff 1
END
Comments