Impaled - Trocar Chords & Tabs

 

Trocar Chords & Tabs

Impaled Chords & Tabs

Version: 1 Type: Tab 0 ratings
1 star 2 stars 3 stars 4 stars 5 stars
comments

Trocar Tab

   
Impaled
"Trocar"
The Dead shall Dead Remain
Tabbed By Kevin Cruz
From WWW.IMPALED.INFO

Tune all strings down to : B F# D A E B

This band is an awesome band.

BPM = 200

B ||------------------------|-------------------------|
F#||------------------------|-------------------------|
D ||------------------------|-------------------------|
A ||-------------2--4-------|--4-----------5--7-------|
E ||-------4-----------2----|-----5-----5-------------|
B ||--2-------5-------------|--------3-----------2----|

-------------------------|-------------------------|-------------------------|
-------------------------|-------------------------|-------------------------|
-------------------------|-------------------------|-------------------------|
--------2--4-------4-----|--------5--7-------------|--2--4-------4-----------|
--4-----------2-------5--|-----5-------------4-----|--------2-------5-----5--|
-----5-------------------|--3-----------2-------5--|-------------------3-----|

-------------------------|-------------------------|------------------------|
-------------------------|-------------------------|------------------------|
-------------------------|-------------------------|------------------------|
--5--7-------------2--4--|-------4-----------5--7--|--6----------6----------|
-------------4-----------|--2-------5-----5--------|--4--4----4--4--4----4--|
--------2-------5--------|-------------3-----------|-----2----2-----2----2--|

------------------------|------------------------|
------------------------|------------------------|
------------------------|------------------------|
--5----------5----------|--6----------6----------|
--3--3----3--3--3----3--|--4--4----4--4--4----4--|
-----1----1-----1----1--|-----2----2-----2----2--|

----------------------------------|------------------------|
----------------------------------|------------------------|
----------------------------------|------------------------|
----------------------------------|--6----------6----------|
--5-5-5-5-4-5-4---3-3-3-3---------|--4--4----4--4--4----4--|
----------------5---------4-4-4-4-|-----2----2-----2----2--|

------------------------|------------------------|
------------------------|------------------------|
------------------------|------------------------|
--5----------5----------|--6----------6----------|
--3--3----3--3--3----3--|--4--4----4--4--4----4--|
-----1----1-----1----1--|-----2----2-----2----2--|

----------------------------------|----------------------------|
----------------------------------|----------------------------|
----------------------------------|----------------------------|
----------------------------------|----------------------------|
--5-5-5-5-4-5-4---3-3-3-3---------|--4------------4------------|
----------------5---------4-4-4-4-|-------2-2-2-2------2-2-2-2-|

----------------------------|----------------------------|
----------------------------|----------------------------|
----------------------------|----------------------------|
----------------------------|----------------------------|
--3------------3------------|--4------------4------------|
-------1-1-1-1------1-1-1-1-|-------2-2-2-2------2-2-2-2-|

-----------------------|----------------------------|
-----------------------|----------------------------|
-----------------------|----------------------------|
--7----6-----5---------|----------------------------|
--5----4--7--3----6----|--4------------4------------|
----------5-------4----|-------2-2-2-2------2-2-2-2-|

----------------------------|----------------------------|
----------------------------|----------------------------|
----------------------------|----------------------------|
----------------------------|----------------------------|
--3------------3------------|--4------------4------------|
-------1-1-1-1------1-1-1-1-|-------2-2-2-2------2-2-2-2-|

-----------------------|----------------------------------|
-----------------------|----------------------------------|
-----------------------|----------------------------------|
--7----6-----5---------|------------------7-7-8-8-7-7-7-7-|
--5----4--7--3----6----|--5-5-5-5-5-5-5-5-----------------|
----------5-------4----|----------------------------------|

----------------------------------|----------------------------------|
----------------------------------|----------------------------------|
----------------------------------|----------------------------------|
------------------8-8-8-8---------|------------------7-7-8-8-7-7-7-7-|
--6-6-6-6-6-6-6-6---------9-9-9-9-|--5-5-5-5-5-5-5-5-----------------|
----------------------------------|----------------------------------|

------------------------------------------|----------------------------------|
------------------------------------------|----------------------------------|
--7-7-7-7---------10-10-10-10-10-10-10-10-|----------------------------------|
----------8-8-8-8-------------------------|------------------7-7-8-8-7-7-7-7-|
------------------------------------------|--5-5-5-5-5-5-5-5-----------------|
------------------------------------------|----------------------------------|

----------------------------------|----------------------------------|
----------------------------------|----------------------------------|
----------------------------------|----------------------------------|
------------------8-8-8-8---------|------------------7-7-8-8-7-7-7-7-|
--6-6-6-6-6-6-6-6---------9-9-9-9-|--5-5-5-5-5-5-5-5-----------------|
----------------------------------|----------------------------------|

----------------------------------|----------------------------------|
----------------------------------|----------------------------------|
----------------------------------|----------------------------------|
----------------------------------|------------------7-7-8-8-7-7-7-7-|
----------8-8-8-8-7-7-7-7---------|--5-5-5-5-5-5-5-5-----------------|
--6-6-6-6-----------------9-9-9-9-|----------------------------------|

----------------------------------|----------------------------------|
----------------------------------|----------------------------------|
----------------------------------|----------------------------------|
------------------8-8-8-8---------|------------------7-7-8-8-7-7-7-7-|
--6-6-6-6-6-6-6-6---------9-9-9-9-|--5-5-5-5-5-5-5-5-----------------|
----------------------------------|----------------------------------|

------------------------------------------|----------------------------------|
------------------------------------------|----------------------------------|
--7-7-7-7---------10-10-10-10-10-10-10-10-|----------------------------------|
----------8-8-8-8-------------------------|------------------7-7-8-8-7-7-7-7-|
------------------------------------------|--5-5-5-5-5-5-5-5-----------------|
------------------------------------------|----------------------------------|

----------------------------------|----------------------------------|
----------------------------------|----------------------------------|
----------------------------------|----------------------------------|
------------------8-8-8-8---------|------------------7-7-8-8-7-7-7-7-|
--6-6-6-6-6-6-6-6---------9-9-9-9-|--5-5-5-5-5-5-5-5-----------------|
----------------------------------|----------------------------------|

----------------------------------|------------------------|
----------------------------------|------------------------|
----------------------------------|------------------------|
----------------------------------|--4----6--7--3----3--5--|
----------8-8-8-8-7-7-7-7---------|--4----4--7--3----1--5--|
--6-6-6-6-----------------9-9-9-9-|--2----4--5--1----1--3--|

-------------------------|------------------------|-------------------------|
-------------------------|------------------------|-------------------------|
-------------------------|------------------------|-------------------------|
--4----6--7--------5--7--|--4----6--7--3----3--5--|--4----6--7--------5--7--|
--4----4--7-----5--------|--4----4--7--3----1--5--|--4----4--7-----5--------|
--2----4--5--3-----------|--2----4--5--1----1--3--|--2----4--5--3-----------|

------------------------|-------------------------|------------------------|
------------------------|-------------------------|------------------------|
------------------------|-------------------------|------------------------|
--4----6--7--3----3--5--|--4----6--7--------5--7--|--4----6--7--3----3--5--|
--4----4--7--3----1--5--|--4----4--7-----5--------|--4----4--7--3----1--5--|
--2----4--5--1----1--3--|--2----4--5--3-----------|--2----4--5--1----1--3--|

-------------------------|------------------------|------------------------|
-------------------------|------------------------|------------------------|
-------------------------|------------------------|------------------------|
--4----6--7--------5--7--|--6----------6----------|--5----------5----------|
--4----4--7-----5--------|--4--4----4--4--4----4--|--3--3----3--3--3----3--|
--2----4--5--3-----------|-----2----2-----2----2--|-----1----1-----1----1--|

------------------------|----------------------------------|
------------------------|----------------------------------|
------------------------|----------------------------------|
--6----------6----------|----------------------------------|
--4--4----4--4--4----4--|--5-5-5-5-4-5-4---3-3-3-3---------|
-----2----2-----2----2--|----------------5---------4-4-4-4-|

------------------------|------------------------|------------------------|
------------------------|------------------------|------------------------|
------------------------|------------------------|------------------------|
--6----------6----------|--5----------5----------|--6----------6----------|
--4--4----4--4--4----4--|--3--3----3--3--3----3--|--4--4----4--4--4----4--|
-----2----2-----2----2--|-----1----1-----1----1--|-----2----2-----2----2--|

----------------------------------|----------------------------|
----------------------------------|----------------------------|
----------------------------------|----------------------------|
----------------------------------|----------------------------|
--5-5-5-5-4-5-4---3-3-3-3---------|--4------------4------------|
----------------5---------4-4-4-4-|-------2-2-2-2------2-2-2-2-|

----------------------------|----------------------------|
----------------------------|----------------------------|
----------------------------|----------------------------|
----------------------------|----------------------------|
--3------------3------------|--4------------4------------|
-------1-1-1-1------1-1-1-1-|-------2-2-2-2------2-2-2-2-|

-----------------------|----------------------------|
-----------------------|----------------------------|
-----------------------|----------------------------|
--7----6-----5---------|----------------------------|
--5----4--7--3----6----|--4------------4------------|
----------5-------4----|-------2-2-2-2------2-2-2-2-|

----------------------------|----------------------------|
----------------------------|----------------------------|
----------------------------|----------------------------|
----------------------------|----------------------------|
--3------------3------------|--4------------4------------|
-------1-1-1-1------1-1-1-1-|-------2-2-2-2------2-2-2-2-|

P.M.---------------------------------------------------------------------------|
-----------------------|--------------------------|----------------------------|
-----------------------|--------------------------|----------------------------|
-----------------------|--------------------------|----------------------------|
--7----6-----5---------|--4--4--4--4--4--4--4--4--|--4--4--4--4--4--4--4--4----|
--5----4--7--3----6----|--4--4--4--4--4--4--4--4--|--4--4--4--4--4--4--4--4----|
----------5-------4----|--2--2--2--2--2--2--2--2--|--2--2--2--2--2--2--2--2----|

------------------------|-------------------------|-------------------------|
------------------------|-------------------------|-------------------------|
------------------------|-------------------------|-------------------------|
--4----4--4--6/-7--3----|--3--3--4--5--4----4--4--|--6/-7-------7-----7--6--|
--4----4--4--4/-5--3----|--3--3--2--5--4----4--4--|--6/-7--5-------5--------|
--2----2--2--4--5--1----|--1--1--2--3--2----2--2--|--4/-5-------------------|

------------------------|-------------------------|-------------------------|
------------------------|-------------------------|-------------------------|
------------------------|-------------------------|-------------------------|
--4----4--4--6/-7--3----|--3--3--4--5--4----4--4--|--6/-7-------7-----7--6--|
--4----4--4--4/-5--3----|--3--3--2--5--4----4--4--|--6/-7--5-------5--------|
--2----2--2--4--5--1----|--1--1--2--3--2----2--2--|--4/-5-------------------|

------------------------|-------------------------|-------------------------|
------------------------|-------------------------|-------------------------|
------------------------|-------------------------|-------------------------|
--4----4--4--6/-7--3----|--3--3--4--5--4----4--4--|--6/-7-------7-----7--6--|
--4----4--4--4/-5--3----|--3--3--2--5--4----4--4--|--6/-7--5-------5--------|
--2----2--2--4--5--1----|--1--1--2--3--2----2--2--|--4/-5-------------------|

------------------------|-------------------------|-------------------------|
------------------------|-------------------------|-------------------------|
------------------------|-------------------------|-------------------------|
--4----4--4--6/-7--3----|--3--3--4--5--4----4--4--|--6/-7-------7-----7--6--|
--4----4--4--4/-5--3----|--3--3--2--5--4----4--4--|--6/-7--5-------5--------|
--2----2--2--4--5--1----|--1--1--2--3--2----2--2--|--4/-5-------------------|

-------------------------|----------------------------|
-------------------------|----------------------------|
-------------------------|----------4-----------------|
--4------------4----4----|----------2----4------------|
--4------------2----4----|----------2----4------------|
--2----2-2-2-2-2----2----|--2-2-2-2------2----2-2-2-2-|

-------------------------|-------------------------|
-------------------------|-------------------------|
-------------------------|-------------------------|
--4----5--5--5--5--5--5--|--4------------4----4----|
--2----5--5--5--5--5--5--|--4------------2----4----|
--2----3--3--3--3--3--3--|--2----2-2-2-2-2----2----|


                                                         Let Ring
----------------------------------------------------------------------------|
----------------------------|-------------------------|---------------------|
----------------------------|-------------------------|---------------------|
----------4-----------------|-------------------------|---------------------|
----------2----4------------|--4----5--5--5--5--5--5--|--4------------------|
----------2----4------------|--2----5--5--5--5--5--5--|--4------------------|
--2-2-2-2------2----2-2-2-2-|--2----3--3--3--3--3--3--|--2------------------|


----------------|                            Let Ring -----------|
------------------|------------------------|---------------------|
------------------|------------------------|---------------------|
------------------|------------------------|---------------------|
------------------|------5--5--5--5--5--5--|--4------------------|
------------------|------5--5--5--5--5--5--|--4------------------|
------------------|------3--3--3--3--3--3--|--2------------------|

[ Tab from: http://www.guitartabs.cc/tabs/i/impaled/trocar_tab.html ]
------------------------------------------------------------------|
------------------|------------------------|----------------------|
------------------|------------------------|----------------------|
------------------|------------------------|----------------------|
------------------|------5--5--5--5--5--5--|----------------------|
------------------|------5--5--5--5--5--5--|--------4-----2--5----|
------------------|------3--3--3--3--3--3--|--2--2-----5----------|

--------------------|--------------------|----------------------------------|
--------------------|--------------------|----------------------------------|
--------------------|--------------------|----------------------------------|
--------------2--4--|--------------------|----------------------------------|
--------4-----------|--------4-----2--5--|------------------5-5-4-4---------|
--2--2-----5--------|--2--2-----5--------|--3-3-3-3-3-3-3-3---------5-5-5-5-|

--------------------|--------------------|--------------------|
--------------------|--------------------|--------------------|
--------------------|--------------------|--------------------|
--------------------|--------------2--4--|--------------------|
--------4-----2--5--|--------4-----------|--------4-----2--5--|
--2--2-----5--------|--2--2-----5--------|--2--2-----5--------|

----------------------------------|--------------------|--------------------|
----------------------------------|--------------------|--------------------|
----------------------------------|--------------------|--------------------|
----------------------------------|--------------------|--------------2--4--|
------------------5-5-4-4---------|--------4-----2--5--|--------4-----------|
--3-3-3-3-3-3-3-3---------5-5-5-5-|--2--2-----5--------|--2--2-----5--------|

--------------------|----------------------------------|--------------------|
--------------------|----------------------------------|--------------------|
--------------------|----------------------------------|--------------------|
--------------------|----------------------------------|--------------------|
--------4-----2--5--|------------------5-5-4-4---------|--------4-----2--5--|
--2--2-----5--------|--3-3-3-3-3-3-3-3---------5-5-5-5-|--2--2-----5--------|

--------------------|--------------------|----------------------------------|
--------------------|--------------------|----------------------------------|
--------------------|--------------------|----------------------------------|
--------------2--4--|--------------------|----------------------------------|
--------4-----------|--------4-----2--5--|------------------5-5-4-4---------|
--2--2-----5--------|--2--2-----5--------|--3-3-3-3-3-3-3-3---------5-5-5-5-|

------------------------|------------------------|--------------------------|
------------------------|------------------------|--------------------------|
------------------------|------------------------|--------------------------|
--7--7----7--7--8----5--|--3--4----4--3--4----4--|--7--7----7--7--10----10--|
--5--5----5--5--8----5--|--3--4----4--3--4----4--|--7--7----7--7--10----10--|
--5--5----5--5--6----3--|--1--2----2--1--2----2--|--5--5----5--5--8-----8---|

------------------------|------------------------|------------------------|
------------------------|------------------------|------------------------|
------------------------|------------------------|------------------------|
--3--4----4--3--4----4--|--7--7----7--7--8----5--|--3--4----4--3--4----4--|
--3--4----4--3--4----4--|--5--5----5--5--8----5--|--3--4----4--3--4----4--|
--1--2----2--1--2----2--|--5--5----5--5--6----3--|--1--2----2--1--2----2--|

--------------------------|------------------------|------------------------|
--------------------------|------------------------|------------------------|
--------------------------|------------------------|------------------------|
--7--7----7--7--10----10--|--3--4----4--3--4----4--|--7--7----7--7--8----5--|
--7--7----7--7--10----10--|--3--4----4--3--4----4--|--5--5----5--5--8----5--|
--5--5----5--5--8-----8---|--1--2----2--1--2----2--|--5--5----5--5--6----3--|

------------------------|--------------------------|------------------------|
------------------------|--------------------------|------------------------|
------------------------|--------------------------|------------------------|
--3--4----4--3--4----4--|--7--7----7--7--10----10--|--3--4----4--3--4----4--|
--3--4----4--3--4----4--|--7--7----7--7--10----10--|--3--4----4--3--4----4--|
--1--2----2--1--2----2--|--5--5----5--5--8-----8---|--1--2----2--1--2----2--|

------------------------|------------------------|--------------------------|
------------------------|------------------------|--------------------------|
------------------------|------------------------|--------------------------|
--7--7----7--7--8----5--|--3--4----4--3--4----4--|--7--7----7--7--10----10--|
--5--5----5--5--8----5--|--3--4----4--3--4----4--|--7--7----7--7--10----10--|
--5--5----5--5--6----3--|--1--2----2--1--2----2--|--5--5----5--5--8-----8---|

------------------------|------------------------|---------------------------|
------------------------|------------------------|---------------------------|
------------------------|------------------------|---------------------------|
--3--4----4--3--4----4--|--4----4--3--3----6--7--|--7--7--10--7--8--8--11----|
--3--4----4--3--4----4--|--4----4--1--3----4--7--|--7--7--8---5--8--8--11----|
--1--2----2--1--2----2--|--2----2--1--1----4--5--|--5--5--8---5--6--6--9-----|

------------------------|---------------------------|------------------------|
------------------------|---------------------------|------------------------|
------------------------|---------------------------|------------------------|
--4----4--3--3----6--7--|--7--7----10--7--8--8--11--|--4----4--3--3----6--7--|
--4----4--1--3----4--7--|--7--7----8---5--8--8--11--|--4----4--1--3----4--7--|
--2----2--1--1----4--5--|--5--5----8---5--6--6--9---|--2----2--1--1----4--5--|

---------------------------|------------------------|
---------------------------|------------------------|
---------------------------|------------------------|
--7--7----10--7--8--8--11--|--4----4--3--3----6--7--|
--7--7----8---5--8--8--11--|--4----4--1--3----4--7--|
--5--5----8---5--6--6--9---|--2----2--1--1----4--5--|

---------------------------|-------------------|-------------------|
---------------------------|-------------------|-------------------|
---------------------------|-------------------|-------------------|
--7--7----10--7--8--8--11--|--4----------------|--3----------------|
--7--7----8---5--8--8--11--|--4----------------|--3----------------|
--5--5----8---5--6--6--9---|--2----------------|--1----------------|

-------------------|-------------------|-------------------|-------------------|
-------------------|-------------------|-------------------|-------------------|
-------------------|-------------------|-------------------|-------------------|
--6----------------|--7----------------|--4----------------|--3----------------|
--4----------------|--5----------------|--4----------------|--3----------------|
--4----------------|--5----------------|--2----------------|--1----------------|


                                          (solo 1)
-------------------|-------------------|-------------------|-------------------|
-------------------|-------------------|-------------------|-------------------|
-------------------|-------------------|-------------------|-------------------|
--6----------------|--7----------------|--4----------------|--3----------------|
--4----------------|--5----------------|--4----------------|--3----------------|
--4----------------|--5----------------|--2----------------|--1----------------|

-------------------|-------------------|-------------------|-------------------|
-------------------|-------------------|-------------------|-------------------|
-------------------|-------------------|-------------------|-------------------|
--6----------------|--7----------------|--4----------------|--3----------------|
--4----------------|--5----------------|--4----------------|--3----------------|
--4----------------|--5----------------|--2----------------|--1----------------|


                                          (solo 2)
-------------------|-------------------|-------------------|-------------------|
-------------------|-------------------|-------------------|-------------------|
-------------------|-------------------|-------------------|-------------------|
--6----------------|--7----------------|--4----------------|--3----------------|
--4----------------|--5----------------|--4----------------|--3----------------|
--4----------------|--5----------------|--2----------------|--1----------------|

-------------------|-------------------|-------------------|-------------------|
-------------------|-------------------|-------------------|-------------------|
-------------------|-------------------|-------------------|-------------------|
--6----------------|--7----------------|--4----------------|--3----------------|
--4----------------|--5----------------|--4----------------|--3----------------|
--4----------------|--5----------------|--2----------------|--1----------------|

-------------------|-------------------|------------------------|
-------------------|-------------------|------------------------|
-------------------|-------------------|------------------------|
--6----------------|--7----------------|-------------2--4-------|
--4----------------|--5----------------|-------4-----------2----|
--4----------------|--5----------------|--2-------5-------------|

-------------------------|-------------------------|-------------------------|
-------------------------|-------------------------|-------------------------|
-------------------------|-------------------------|-------------------------|
--4-----------5--7-------|--------2--4-------4-----|--------5--7-------------|
-----5-----5-------------|--4-----------2-------5--|-----5-------------4-----|
--------3-----------2----|-----5-------------------|--3-----------2-------5--|

-------------------------|-------------------------|-------------------------|
-------------------------|-------------------------|-------------------------|
-------------------------|-------------------------|-------------------------|
--2--4-------4-----------|--5--7-------------2--4--|-------4-----------5--7--|
--------2-------5-----5--|-------------4-----------|--2-------5-----5--------|
-------------------3-----|--------2-------5--------|-------------3-----------|


  Hold---------------------------------------------------------------------|
------------------|------------------|------------------|------------------|
------------------|------------------|------------------|------------------|
------------------|------------------|------------------|------------------|
-(7)--------------|------------------|------------------|--5---------------|
------------------|------------------|------------------|--5---------------|
------------------|------------------|------------------|--3--------0------|


                                                                  A.H.
----------------|----------------|-----------------|-------------------|
----------------|----------------|-----------------|-------------------|
----------------|----------------|-----------------|-------------------|
--4-------------|-------3--------|------------4----|-------------------|
--4-------------|-------3--------|------------4----|--------------3----|
--2--------0----|--0----1--------|--0----0----2----|--0--2--4--5-------|

----------------|----------------|----------------|-----------------|
----------------|----------------|----------------|-----------------|
----------------|----------------|----------------|-----------------|
--5-------------|--4-------------|-------3--------|------------4----|
--5-------------|--4-------------|-------3--------|------------4----|
--3--------0----|--2--------0----|--0----1--------|--0----0----2----|


              A.H.
-------------------|----------------|----------------|----------------|
-------------------|----------------|----------------|----------------|
-------------------|----------------|----------------|----------------|
-------------------|--5-------------|--4-------------|-------3--------|
--------------3----|--5-------------|--4-------------|-------3--------|
--0--2--4--5-------|--3--------0----|--2--------0----|--0----1--------|


                                A.H.
-----------------|-------------------|----------------|----------------|
-----------------|-------------------|----------------|----------------|
-----------------|-------------------|----------------|----------------|
------------4----|-------------------|--5-------------|--4-------------|
------------4----|--------------3----|--5-------------|--4-------------|
--0----0----2----|--0--2--4--5-------|--3--------0----|--2--------0----|


                                                 A.H.
----------------|-----------------|-------------------|---------------|
----------------|-----------------|-------------------|---------------|
----------------|-----------------|-------------------|---------------|
-------3--------|------------4----|-------------------|--5------------|
-------3--------|------------4----|--------------3----|--5------------|
--0----1--------|--0----0----2----|--0--2--4--5-------|--3------------|

---------------|---------------|---------------|----------------|
---------------|---------------|---------------|----------------|
---------------|---------------|---------------|----------------|
--4------------|--3------------|--4------------|--5-------------|
--4------------|--3------------|--4------------|--5-------------|
--2------------|--1------------|--2------------|--3--------0----|


                                                                  A.H.
----------------|----------------|-----------------|-------------------|
----------------|----------------|-----------------|-------------------|
----------------|----------------|-----------------|-------------------|
--4-------------|-------3--------|------------4----|-------------------|
--4-------------|-------3--------|------------4----|--------------3----|
--2--------0----|--0----1--------|--0----0----2----|--0--2--4--5-------|

----------------|----------------|----------------|-----------------|
----------------|----------------|----------------|-----------------|
----------------|----------------|----------------|-----------------|
--5-------------|--4-------------|-------3--------|------------4----|
--5-------------|--4-------------|-------3--------|------------4----|
--3--------0----|--2--------0----|--0----1--------|--0----0----2----|


              A.H.
-------------------|----------------|----------------|----------------|
-------------------|----------------|----------------|----------------|
-------------------|----------------|----------------|----------------|
-------------------|--5-------------|--4-------------|-------3--------|
--------------3----|--5-------------|--4-------------|-------3--------|
--0--2--4--5-------|--3--------0----|--2--------0----|--0----1--------|


                                A.H.
-----------------|-------------------|----------------|----------------|
-----------------|-------------------|----------------|----------------|
-----------------|-------------------|----------------|----------------|
------------4----|-------------------|--5-------------|--4-------------|
------------4----|--------------3----|--5-------------|--4-------------|
--0----0----2----|--0--2--4--5-------|--3--------0----|--2--------0----|


                                                 A.H.
----------------|-----------------|-------------------||
----------------|-----------------|-------------------||
----------------|-----------------|-------------------||
-------3--------|------------4----|-------------------||
-------3--------|------------4----|--------------3----||
--0----1--------|--0----0----2----|--0--2--4--5-------||
Comments