Immortal - Tyrants Chords & Tabs

 

Tyrants Chords & Tabs

Immortal Chords & Tabs

Version: 1 Type: Tab 0 ratings
1 star 2 stars 3 stars 4 stars 5 stars
comments

Tyrants Tab

   
Immortal - "Tyrants"
>From the Album "Sons Of Northern Darkness"
Music by Abbath and Horgh

Transcribed by Mark Straughen
Suggestions and Corrections to Straughenfamily@aol.com


Tune Down One Step


Riff A (2x)

|-------------------------------------------------|
|-------------------------------------------------|
|-------------------------------------------------|
|---12-12----12----12-------12-12-----12----12-12-|
|---10-10----10----10-------10-10-----10----10-10-|
|-0--0--0--0--0--0--0--0--0--0--0--0--0--0--0--0--|
	   .     .     .           .     .
                                            var.1      var.2
|------------------------------------------|----------|-------|
|------------------------------------------|----------|-------|
|------------------------------------------|----------|-------|
|---14-14----14----14-------14-14-----14---|-14/15\14-|--15"--|
|---12-12----12----12-------12-12-----12---|-12/13\12-|--13"--|
|-0--0--0--0--0--0--0--0--0--0--0--0--0--0-|-0--------|-------|
	   .     .     .           .     .



Riff B (4x)           var.1  var.2

|--------------------|------|---------|
|--------------------|------|---------|
|--------------------|------|---------|
|-2-----3-------2--3-|--3"--|--3"-2"--|
|-2-----3-----2----3-|------|---------|
|-0--0--1---3------1-|------|---------|
     .

then Riff A (4x)
then Riff B (4x)
then Riff A (4x)



Riff C (1.75x)
                    
|----------------|-----------------|
|----------------|-----------------|
|----------------|-----------------|
|-5-------5--2-2-|-5---5--2--------|
|-3-----5----2---|-3---5--2--------|
|-3---5------0---|-3---5--0-0-0000-|
                            . ....


Riff D

|----0-----0----|---------------|---------------||-----|
|----0-----0----|---------------|---------------||-----|
|---------------|-0-------------|-0-------------||-----|
|-2-----4-----2-|---4-2h4p2-0---|---4-2h4p2-0-4-||--2--|
|-2-----2-----3-|-------------3-|---------------||--2--|
|-0-----0-----0-|---------------|---------------||--0--|




Riff E (clean)

|------------------------|------------------------|
|------------------------|------------------------|
|------------------4-----|------------------------|
|------5-----5-------5---|-----5-----5-----5------|
|----7---7-----7-------7-|---7---7-----7-----7----|
|--7-------7-----7-------|-7-------7-----7-----7--|


|------------------------|------------------------|
|------------------------|------------------------|
|------------------4-----|------------------------|
|------4-----4-------4---|-----4-----4-----4------|
|----5---5-----5-------5-|---5---5-----5-----5----|
|--5-------5-----5-------|-5-------5-----5-----5--|


|------------------------|------------------------|
|------------------------|------------------------|
|------------------4-----|------------------------|
|------5-----5-------5---|-----5-----5-----5------|
|----7---7-----7-------7-|---7---7-----7-----7----|
|--7-------7-----7-------|-7-------7-----7-----7--|

[ Tab from: http://www.guitartabs.cc/tabs/i/immortal/tyrants_tab.html ]
|------------------------|------------------------|
|------------------------|------------------------|
|------------------4-----|-----------------2------|
|------4-----4-------4---|-----4-----4-------4----|
|----5---5-----5-------5-|---5---5-----5-------5--|
|--5-------5-----5-------|-5-------5-----5--------|


|------------------------|------------------------|
|------------------------|------------------------|
|------------------4-----|-----------------4------|
|------5-----5-------5---|-----5-----5-------5----|
|----7---7-----7-------7-|---7---7-----7-------7--|
|--7-------7-----7-------|-7-------7-----7--------|


|------------------------|------------------------|
|------------------------|------------------------|
|------------------4-----|-----------------2------|
|------4-----4-------4---|-----4-----4-------4----|
|----5---5-----5-------5-|---5---5-----5-------5--|
|--5-------5-----5-------|-5-------5-----5--------|


|------------------------|------------------------|
|------------------------|------------------------|
|------------------4-----|-----------------4------|
|------5-----5-------5---|-----5-----5-------5----|
|----7---7-----7-------7-|---7---7-----7-------7--|
|--7-------7-----7-------|-7-------7-----7--------|


|------------------------|------------------------|
|------------------------|------------------------|
|------------------4-----|-----------------2------|
|------4-----4-------4---|-----4-----4-------4----|
|----5---5-----5-------5-|---5---5-----5-------5--|
|--5-------5-----5-------|-5-------5-----5--------|


|------------------------|------------------------|
|------------------------|------------------------|
|------------------4-----|------------------------|
|------5-----5-------5---|-----5-----5-----5------|
|----7---7-----7-------7-|---7---7-----7-----7----|
|--8-------8-----8-------|-8-------8-----8-----8--|


|------------------------|------------------------|
|------------------------|------------------------|
|------------------------|-----------2------------|
|------5-----5-----5-----|-----4-------4---4------|
|----7---7-----7-----7---|---5---5-------5---5----|
|--7-------7-----7-----7-|-5-------5-----------5--|


|------------------------|------------------------|
|------------------------|------------------------|
|------------------------|-----------2------------|
|------5-----5-----5-----|-----4-------4---4------|
|----7---7-----7-----7---|---5---5-------5---5----|
|--7-------7-----7-----7-|-5-------5-----------5--|




Riff F

|--------------------|------------------------|
|--------------------|------------------------|
|--------------------|------------------------|
|-9"----9"----7"--7"-|-9"----9"---7"---5"--7"-|
|-7"---10"----9"--5"-|-7"---10"---9"---7"--5"-|
|--------------------|------------------------|


|--------------------|------------------------|
|--------------------|------------------------|
|--------------------|------------------------|
|-9"----9"----7"--7"-|-9"----9"---7"---5"-----|
|-7"---10"----9"--5"-|-7"---10"---9"-------9"-|
|--------------------|------------------------|



then Riff A (6x), on the 5th time and 6th time this is also played:


|-12"--10"---9"--8"--7"---8"-|
|-10"--10"--10"-10"-10"--10"-|
|----------------------------|
|----------------------------|
|----------------------------|
|----------------------------|


then Riff C (1.75x)
Comments