Immortal - Triumph Chords & Tabs

 

Triumph Chords & Tabs

Immortal Chords & Tabs

Version: 2 Type: Tab 0 ratings
1 star 2 stars 3 stars 4 stars 5 stars
comments

Triumph Tab

/---------------------------------------------------------------------------/
/    The following is the author's own interpretation of the song, to be    /
/                     used for private use and studying                     /
/---------------------------------------------------------------------------/

                          IMMORTAL - TRIUMPH
                     From the Album DAMNED IN BLACK
                   Copyright 2000 OSMOSE PRODUCTIONS

                        Version 666 - FEB '05

Transcribed by: Death8699

For Questions, Comments, Newest Version, or Corrections contact
 Death8699: at MethylinInfo@aol.com

Check Out Death Warp, With More Transcriptions On It:
 http://www.deathwarp.com/

..  - palm mute          /  - slide up to
 \  - slide down to      ~  - vibrato
 h  - hammer on          b  - bend
 p  - pull off            Suffixes for bend
                          ph - pinch harmonic
                           f - full bend    h - half bend
*  - see comment           r - release      t - tap bend
X  - percussion mute       ~ - vibrato bend
@  - slight palm mute     () - ghost note, sustained note

Tune Gtr to E (Standard Tuning)

--TRIUMPH--

|Rhy.Fig.1|
|----------------------------------------------------------|
|----------------------------------------------------------|
|----------------------------------------------------------|
|-3---2----------------------------------------------------|
|-3---2----------------------------------------------------|
|-1---0---0-0-0--0-0-0--0-0-0--0-0-0--0-0-0--0-0-0--0-0-0--|
|         . . .  . . .  . . .  . . .  . . .  . . .  . . .  |               
|----------------------------------------------------------|
|----------------------------------------------------------|
|----------------------------------------------------------|
|-3---2----------------------------------------------------|
|-3---2----------------------------------------------------|
|-1---0---0-0-0--0-0-0--0-0-0--X\--------------------------|
          . . .  . . .  . . .  Pick Slide


Play Rhy.Fig.1 a total of one time only.


|Rhy.Fig.2|
|-------------------------------------------------------------|
|-------------------------------------------------------------|
|:--------------------------------------------5-5-4-4---------|
|:-3---2--------------------------------------5-5-4-4---------|
|--3---2--------------------------------------3-3-2-2---------|
|--1---0---0-0-0--0-0-0--0-0-0--0-0-0--0-0-0------------------|
|          . . .  . . .  . . .  . . .  . . .                  |
|-------------------------------------------------------------|
|-------------------------------------------------------------|
|---------------------------------------------6-6-5-5--------:|
|--3---2--------------------------------------6-6-5-5-3---2--:|
|--3---2--------------------------------------4-4-3-3-3---2---|
|--1---0---0-0-0--0-0-0--0-0-0--0-0-0--0-0-0----------1---0---|
           . . .  . . .  . . .  . . .  . . .


Play Rhy.Fig.2 a total of one time only.


|Rhy.Fig.3|
|-----------------------------------------------|
|-----------------------------------------------|
|:---------------------------------------------:|
|:-7/8---------8\7--7/8---------7/8--8\5--5/7--:|
|-----------------------------------------------|
|--5/6--0-0-0--6\5--5/6--0-0-0--5/6--6\3--3/5---|
   sl   . . .   sl  sl   . . .  sl    sl  sl


Play Rhy.Fig.3 a total of one time only.


Repeat Rhy.Fig.2 a total of 4 times.


 |Rhy.Fig.4|
||---------------------------------------------------||
||---------------------------------------------------||
||:--------------------------------------------------||
||:-7/8---------8\7--7/8---------7/8--8\5--5/7--7/8--||
||---------------------------------------------------||
||--5/6--0-0-0--6\5--5/6--0-0-0--5/6--6\3--3/5--5/6--||
||  sl   . . .   sl  sl   . . .  sl    sl  sl   sl   ||
||---------------------------------------------------||
||---------------------------------------------------||
||--------------------------------------------------:||
||---------8\7--7/8---------7/8--8\5--5\3-----------:||
||-------------------------------8\5--5\3------------||
||--0-0-0--6\5--5/6--0-0-0--5/6--6\3--3\1------------||
    . . .   sl  sl   . . .  sl    sl   sl


Play Rhy.Fig.4 a total of 2 times.


 |Rhy.Fig.5|
||-------------------------------------------------------------||
||-------------------------------------------------------------||
||:----5--4-----------4--3-------------5\4-------------4\3-----||
||:-2--5--4-----------4--3-------------5\4-------------4\3-----||
||--2--3--2-----------2--1-------------3\2-------------2\1-----||
||--0--------0-0-0-0--------0-0-0-0-0---sl--0-0-0-0-0---sl-----||
||           . . . .        . . . . .       . . . . .          ||
||-------------------------------------------------------------||
||-------------------------------------------------------------||
||-----------5--4-----------4--3------------5\4-----------4\3-:||
||-----------5--4-----------4--3----------4-5\4---------3-4\3-:||
||-----------3--2-----------2--1----------4-3\2---------3-2\1--||
||--0-0-0-0--------0-0-0-0--------2-2-2-2-2--sl-1-1-1-1-1--sl--||
    . . . .        . . . .        . . . .       . . . .


Play Rhy.Fig.5 a total of 4 times.


 |Rhy.Fig.6|
||----------------------------------------------------------------|
||----------------------------------------------------------------|
||:---------------------------------------------------------------|
||:-2---7-----5-----4-----7-----5-----4-----5\4-2---7-----5-----4-|
||--2---7-----5-----4-----7-----5-----4-----5\4-2---7-----5-----4-|
||--0---5-0-0-3-0-0-2-0-0-5-0-0-3-0-0-2-0-0-3\2-0---5-0-0-3-0-0-2-|
||        . .   . .   . .   . .   . .   . .  sl       . .   . .   |
||----------------------------------------------------------------|
||----------------------------------------------------------------|
||--7/8--8-----------11/12--12------------------------------------|
||----------------------------------------------------------------|
||--5/6--6------------9/10--10------------------------------------|
||--sl------0--0-0-0--sl------------------------------------------|
            .  . . .
[ Tab from: http://www.guitartabs.cc/tabs/i/immortal/triumph_tab_ver_2.html ]
 |----------------------------------------------------------------||
 |----------------------------------------------------------------||
 |----------------------------------------------------------------||
 |--2---7-----5-----4-----7-----5-----4-----5\4-2---7-----5-----4-||
 |--2---7-----5-----4-----7-----5-----4-----5\4-2---7-----5-----4-||
 |--0---5-0-0-3-0-0-2-0-0-5-0-0-3-0-0-2-0-0-3\2-0---5-0-0-3-0-0-2-||
 |        . .   . .   . .   . .   . .   . .  sl       . .   . .   ||
 |----------------------------------------------------------------||
 |----------------------------------------------------------------||
 |---------------------------------------------------------------:||
 |--------------------------2------------------------------------:||
 |--2---0-------------------2-------------------------------------||
 |----------3---2---3---2---0-------------------------------------||
    .   .   .   .   .   .


Play Rhy.Fig.6 a total of one time only.


 |Rhy.Fig.7|
||----------------------------------------------------------------|
||----------------------------------------------------------------|
||:---------------------------------------------------------------|
||:-2---7-----5-----4-----7-----5-----4-----5\4-2---7-----5-----4-|
||--2---7-----5-----4-----7-----5-----4-----5\4-2---7-----5-----4-|
||--0---5-0-0-3-0-0-2-0-0-5-0-0-3-0-0-2-0-0-3\2-0---5-0-0-3-0-0-2-|
||        . .   . .   . .   . .   . .   . .  sl       . .   . .   |
||----------------------------------------------------------------|
||----------------------------------------------------------------|
||--7/8--8------------11/12--12-----------------------------------|
||----------------------------------------------------------------|
||--5/6--6-------------9/10--10-----------------------------------|
||--sl------0--0-0-0---sl-----------------------------------------|
            .  . . .
 |----------------------------------------------------------------|
 |----------------------------------------------------------------|
 |----------------------------------------------------------------|
 |--2---7-----5-----4-----7-----5-----4-----5\4-2---7-----5-----4-|
 |--2---7-----5-----4-----7-----5-----4-----5\4-2---7-----5-----4-|
 |--0---5-0-0-3-0-0-2-0-0-5-0-0-3-0-0-2-0-0-3\2-0---5-0-0-3-0-0-2-|
 |        . .   . .   . .   . .   . .   . .  sl       . .   . .   |
 |----------------------------------------------------------------|
 |----------------------------------------------------------------|
 |--7/8--8------------8\5--5/8------------------------------------|
 |----------------------------------------------------------------|
 |--5/6--6------------6\3--3/6------------------------------------|
 |--sl------0--0-0-0---sl--sl-------------------------------------|
            .  . . .
 |----------------------------------------------------------------|
 |----------------------------------------------------------------|
 |----------------------------------------------------------------|
 |--2---7-----5-----4-----7-----5-----4-----5\4-2---7-----5-----4-|
 |--2---7-----5-----4-----7-----5-----4-----5\4-2---7-----5-----4-|
 |--0---5-0-0-3-0-0-2-0-0-5-0-0-3-0-0-2-0-0-3\2-0---5-0-0-3-0-0-2-|
 |        . .   . .   . .   . .   . .   . .  sl       . .   . .   |
 |----------------------------------------------------------------|
 |----------------------------------------------------------------|
 |--7/8--8------------11/12--12-----------------------------------|
 |----------------------------------------------------------------|
 |--5/6--6-------------9/10--10-----------------------------------|
 |--sl------0--0-0-0---sl-----------------------------------------|
            .  . . .
 |----------------------------------------------------------------||
 |----------------------------------------------------------------||
 |----------------------------------------------------------------||
 |--2---7-----5-----4-----7-----5-----4-----5\4-2---7-----5-----4-||
 |--2---7-----5-----4-----7-----5-----4-----5\4-2---7-----5-----4-||
 |--0---5-0-0-3-0-0-2-0-0-5-0-0-3-0-0-2-0-0-3\2-0---5-0-0-3-0-0-2-||
 |        . .   . .   . .   . .   . .   . .  sl       . .   . .   ||
 |----------------------------------------------------------------||
 |----------------------------------------------------------------||
 |---------------------------------------------------------------:||
 |--------------------2------------------------------------------:||
 |--2--0--------------2------2--0---------------------------------||
 |--------3--2--3--2--0------------3--2--3--2---------------------||
    .  .  .  .  .  .         .  .  .  .  .  .


Play Rhy.Fig.7 a total of one time only.


Repeat Rhy.Fig.1 a total of one time only.
Repeat Rhy.Fig.2 a total of 4 times.
Repeat Rhy.Fig.3 a total of one time only.
Repeat Rhy.Fig.4 a total of 2 times.


 |Rhy.Fig.8| 
        1,3. 2.                            4.  
||----------|-----------------------------|-----------------------------||
||----------|-----------------------------|-----------------------------||
||:-----9-9-|-----------------------------|-----------------------4~---:||
||:-----9-9-|-5--5-5--55-3--3-3--33-2~----|-5--5-5--55-3--3-3--33p.h.--:||
||------7-7-|-5--5-5--55-3--3-3--33p.h.---|-5--5-5--55-3--3-3--33-------||
||--000-0-0-|-3--3-3--33-1--1-1--11-------|-3--3-3--33-1--1-1--11-------||


Play Rhy.Fig.8 a total of one time only.


 |Rhy.Fig.9|
||-------------------------||
||-------------------------||
||:-----------------------:||
||:-5--5-5--55-8--8-8--88-:||
||--5--5-5--55-8--8-8--88--||
||--3--3-3--33-6--6-6--66--||


Play Rhy.Fig.9 a total of 4 times.


 |Rhy.Fig.10|              1.                    2.
||------------------------|---------------------|-------------------------||
||------------------------|-5-----5-----5-----5-|-------------------------||
||:-----------------------|-5-----5-----5-----5-|------------------------:||
||:-----------------------|-5-----5-----5-----5-|-------------------5_4--:||
||------------------------|---------------------|--------------------p----||
||--3-333-6_3-3-3-333-6_3-|---333---333---333---|-2-222-2-222-2-222-------||
    . ...  p  . . ...  p      ...   ...   ...     . ... . ... . ...


Play Rhy.Fig.10 a total of 4 times.


Repeat Rhy.Fig.8  a total of one time only.
Repeat Rhy.Fig.9  a total of 4 times.
Repeat Rhy.Fig.10 a total of 4 times.
Repeat Rhy.Fig.5  a total of 4 times.
Repeat Rhy.Fig.7  a total of one time only.
End on E5 Chord!

Check Out Death Warp, With More Transcriptions On It:
 http://www.deathwarp.com/
Comments