Immortal - The Darkness That Embraces Me Chords & Tabs

 

The Darkness That Embraces Me Chords & Tabs

Immortal Chords & Tabs

Version: 1 Type: Tab 0 ratings
1 star 2 stars 3 stars 4 stars 5 stars
comments

The Darkness That Embraces Me Tab

Artist:    Immortal
Song:      The Darkness That Embrace Me
Album:     Damned In Black
Tabbed by: Gabriel

Intro:                       |1        |2        |3
|----------------------------|---------|---------|---------|
|----------------------------|---------|---------|---------|
|----------------------------|-7-7-7-7-|-7-7-8-7-|-7-7-7-7-|
|----------------------------|-7-7-7-7-|-7-7-----|-7-7-7-7-|
|-6-5-5--6-5-5--6-5-5--6-5-5-|-5-5-5-5-|-5-5-----|-5-5-5-5-|
|----------------------------|---------|---------|---------|

First end             Second end         
|--------------|      |--------------|
|--------------|      |--------------|
|--------------|      |--------------|
|-3--5---------|      |-3--2---------|
|-1--3---------|      |-1--0---------|
|--------------|      |--------------|

Verse riff
|------|-----------------------------------------------|
|------|-----------------------------------------------|
|------|o---------------------------------------------o|
|-8-8--|o--5---7-7--4---8-8--5--4---7--7-7--7--7-7----o|
|-6-6--|---3---5-5--2---6-6--3--2---5--5-5--5--5-5-----|
|------|-----------------------------------------------|

Bridge riff
|-------------------------------------------------------|
|-------------------------------------------------------|
|-------------------------------------------------------|
|-5555555--<[ Tab from: http://www.guitartabs.cc/tabs/i/immortal/the_darkness_that_embraces_me_tab.html ]
At end these two tones tremolpicked
|-----------------------|
|-----------------------|
|-----------------------|
|---6......5.......-----|
|-----------------------|
|-----------------------|

Riff 4
This is not exact put its pretty close, I think.
ALL TONES ARE TREMOLOPICKED(except the powerchords at the end). I will write just as normal tones, but remember the tremolopicking!
|------------------------------------------------------|
|------------------------------------------------------|
|------------------------------------------------------|
|---------------------------------------------7-10-7---|
|-6-3-6-3-----5-3-5-3---------6-3-6-3-----5-3-5-8--5-8-|
|---------3-6---------6-3-------------3-6------------6-|

Thats all riffs!

There is also a solo which is played over the verse riff ( I can't figure the solo out, sorry!)

If you wanna improvise a solo, you can play the solo in D

HOW THE SONG IS PLAYED:




Blackened earth before me
Creeping fog in my way
Lurking through the shadows
Of another day
My hearts the darkened one
My soul on ice
Into the world before me
I stalk the night




Blind me moons above me
But still I shall se
In my time of wondering
WInter it will be
I'm getting nearer
The higher moutains wait
It's getting colder
The snow blow in my face




In our great winters land
Theres seldom sun in sight
In great winters land
Hear clear vocies of ice




Through the biting wind
At the cold northern mountains
Horizoned in wintery dreams
At the cold northern mountains




Cover the horizon
But still I shall reach
The unending darkness that embraces me





Then a there is a solo played over the verse riff, this solo can be played in D.

The song fades out with the solo
Comments