Immortal - My Demension Chords & Tabs

 

My Demension Chords & Tabs

Immortal Chords & Tabs

Version: 2 Type: Tab 0 ratings
1 star 2 stars 3 stars 4 stars 5 stars
comments

My Demension Tab

   
Artist:    Immortal
Title:     My Dimension
Album:     Damned in Black
Track#:    4
Copyright: (C) 2000, Osmose Productions

Version 1.0  -  27-02-2005
Transcribed by: Sven v. Haastregt
Email:          svenvh  gmail.com
Website:        http://www.liacs.nl/~svhaastr/tabs.html

Standard Tuning (E A D G B E)

Used symbols:
 "     tremolo picking              h   hammer-on
 \     slide downwards              p   pull-off
 /     slide upwards                .   palm-mute
 < >   harmonic                     >   let ring


(0:02)
Riff A: 2x
 E|---------------------------------|-----------------------------------|
 B|---------------------------------|-----------------------------------|
 G|-------------------------2-4-5-2-|-------------------------2-4-5-----|
 D|-2-----2/4-----4/5-------0-2-3-0-|-2-----2/4-----4/5-------0-2-3-<3>-|
 A|---------------------------------|-----------------------------------|
 E|---0-0-----0-0-----0-0-0---------|---0-0-----0-0-----0-0-0-----------|
 PM   . .     . .     . . .             . .     . .     . . .

 E|---------------------------------|-----------------------------------|
 B|---------------------------------|-----------------------------------|
 G|-------------------------2-4-5-2-|-------------------------5-5-5-5---|
 D|-2-----2/4-----4/5-------0-2-3-0-|-2-----2/4-----4/5-------3-3-3-3---|
 A|---------------------------------|-----------------------------------|
 E|---0-0-----0-0-----0-0-0---------|---0-0-----0-0-----0-0-0-----------|
 PM   . .     . .     . . .             . .     . .     . . .



(0:28)
Riff B: 2x
 E|----------------------------------|------------------------------------|
 B|----------------------------------|------------------------------------|
 G|----------------------------------|------------------------------------|
 D|-2------2-0------2--------2-0-2-3-|-2------2-0------2--------2-2-0---0-|
 A|-------------------3--------------|-------------------3------------3---|
 E|---0000-----0000-----0000---------|---0000-----0000-----0000-----------|
 PM   ....     ....     ....             ....     ....     ....



(0:40)
Riff A; 2x


(0:53)
Riff B; 2x

[ Tab from: http://www.guitartabs.cc/tabs/i/immortal/my_demension_tab_ver_2.html ]
(1:06)
Riff C: 4x
 E|--------------------------------------|-----------------------------------|
 B|--------------------------------------|-----------------------------------|
 G|--------------------------------------|-----------------------------------|
 D|-2------2/3------0----2----3-3\0------|-2------2/3------0----2----3-3\0-0-|
 A|--------------------------------------|-----------------------------------|
 E|---0000-----0000---00---00-------0000-|---0000-----0000---00---00---------|
 PM   ....     ....   ..   ..     . ....     ....     ....   ..   ..



(1:32)
Riff D: 1x
 E|-----------------------------|---------------------------|
 B|-----------------------------|---------------------------|
 G|-----------------------------|---------------------------|
 D|-4"--7"--4"-2"-4"--2"--0"----|-4"--7"--4"-2"-4"--5"--2"--|
 A|-2>------------2>---------3"-|-2>------------2>----------|
 E|-----------------------------|---------------------------|

 "Follow me through the unending..."
 E|-----------------------------|---------------------------|
 B|-----------------------------|---------------------------|
 G|-----------------------------|---------------------------|
 D|-4"--7"---4--2-4"--2"--0"----|-4"--7"---4--2-4"--5"--2"--|
 A|-2>------------2>---------3"-|-2>------------2>----------|
 E|--------00-00----------------|--------00-00--------------|
 PM        .. ..                         .. ..



(2:04)
Riff A; 2x; accompanied by second guitar:
Solo riff:
 E|-------------------------------------------------------------------------|
 B|-5h7p5h7p5h7p5h7-7h8p7h8p7h8p7h8-8h10p8h10p8h10p8h10p8h10p8h10p8h10p8h10-|
 G|----------------------------------------^^ play this for a while, ^^-----|
 D|-------------------------------------------then continue with next-------|
 A|-------------------------------------------figure------------------------|
 E|-------------------------------------------------------------------------|

 E|-----------------------------------------------------------------|
 B|-10h12p10h12p12h13p12h13p10h12p10h12p10h12p10h12-7h8p7h8p7h8p7h8-|
 G|-----------------------------------------------------------------|
 D|-----------------------------------------------------------------|
 A|-----------------------------------------------------------------|
 E|-----------------------------------------------------------------|

 Repeat solo riff (but played slightly different). Then it's getting really
 hard... way too fast! (I don't guarantee the first part is correct, though).
 The following could be some part of the next riff, but it also contains some
 other barely hearable (lower-pitched) notes:

 E|----------------------7-5-5/7-------------|
 B|--------------5h7-7h8---------------------|
 G|------------------------------------------|
 D|------------------------------------------|
 A|------------------------------------------|
 E|------------------------------------------|


(2:29)
Riff B; 2x; accompanied by a few short slides of the second guitar:
 E|----------------|
 B|-12\----12\-----|
 G|----------------|
 D|----------------|
 A|----------------|
 E|----------------|


Riff A; 1x

Riff B; 2x

Riff C; 4x

Riff D; 2x, but only repeat the last part of the riff on the 2nd pass (while
            fading out)

END
Comments