Imago - Taning Chords & Tabs

 

Taning Chords & Tabs

Imago Chords & Tabs

Version: 1 Type: Tab 0 ratings
1 star 2 stars 3 stars 4 stars 5 stars
comments

Taning Tab

   
Title: Taning
By: Imago
Tuning: E,A,D,g,b,E
Tabbed by:Uchiha Sasuke
E-mail: crossanarchy@yahoo.com

| ~  - Let Ring  |
| /  - Slide     |
| PM - Palm Mute |


Light Distorted 

Note: If You Want This Part To Be More
Catchy Mix It W/ Flanger Or Chorus

Intro: D,g,F#m,A,D (2x)  

w/ Distortion

Guitar I:

kung di maganda sa Palm Mute Strum It

e |-----------------------------------------------------|
b |-----------------------------------------------------|
g |-----7--7--------------------------------------------|(2x)
D |-----7--7-PM(9x)--5--5--------4--4--------7--7-------|
A |-----5--5---------5--5-PM(9x)-4--4-PM(9x)-7--7PM(9x)-|
E |------------------3--3--------2--2--------5--5-------|

Then

e |-----------------|
b |-----------------|
g |--7--------------|
D |--7-(strum)------|
A |--5--------------|
E |-----------------|

Guitar II:

e |-----------------------------------------------------|
b |-----------------------------------------------------|
g |-----7~~~~~------------------------------------------|(2x)
D |-----7~~~~~-------5~~~~~-----4~~~~~-------7~~~~~-----|
A |-----5~~~~~-------5~~~~~-----4~~~~~-------7~~~~~-----|
E |------------------3~~~~~-----2~~~~~-------5~~~~~-----|

Then

e |----------| Kung Yung Bokalista n'yo na e |------------|
b |----------| Babae Eh Nagigitara Din     b |----7/9-----|
g |----------| Pede Tong Ipasok            g |----xxxxxxx-|
D |---4------| But.....                    D |----5/7-----|
A |--5-5-4-5-| I don't Know if This Is     A |--5---------|
E |----------| Thesame as They Did..       E |------------|

Verse: F#m,A,D

Guitar I & II :

e |-----------------------------------|
b |-----------------------------------|
g |-------------------------7---------|
D |---4----------7----------7-(strum)-|
A |---4-PM.(12x)-7-PM.(12x)-5---------|
E |---2----------5--------------------|

guitar II will do this in D Part


e |----------|
b |----------|
g |----------|
D |---4------|
A |--5-5-4-5-|
E |----------|


Refrain: C,g,A (2x)

Guitar I:

e |-----------------------------------|
b |-----------------------------------|
g |---5-------------------------------|
D |---5(strum 8x)-5-----------7-------|
A |---3-----------5(strum 8x)-7-(16X)-|
E |---------------3-----------5-------|

Guitar II:

e |----------------------------------------|
b |----------------------------------------|
g |---5------------------------------------|
D |---5-----------5-----------7------------|
A |---3-3/5/7-----5(strum 8x)-7-(strum 8X)-|
E |---------------3-----------5-5/7/9/12---|
[ Tab from: http://www.guitartabs.cc/tabs/i/imago/taning_tab.html ]
Chorus: D,g,F#m,A (2x)

e |-----------------------------------------------------|
b |-----------------------------------------------------|
g |---7-------------------------------------------------|
D |---7(strum 8x)-5-----------4------------7------------|
A |---5-----------5(strum 8x)-4-(strum 8X)-7-(strum 8x)-|
E |---------------3-----------2------------5------------|

Guitar II:

e |-----------------------------------------------------|
b |-----------------------------------------------------|
g |---7-------------------------------------------------|
D |---7-----------5-----------4------------7------------|
A |---5-5/7/9/----5(strum 8x)-4-(strum 8X)-7-(strum 8x)-|
E |---------------3-----------2------------5------------|

Repeat Intro: One Time Only

Repeat Verse:
Repeat Pre Chorus:
Repeat Chorus:

Bridge: D,G,F#m,A,D Pakinggan nyo na lang sa Cd...

Pre Chorus: C,g,A (2x)

Guitar I:

e |-----------------------------------|
b |-----------------------------------|
g |---5-------------------------------|
D |---5(strum 8x)-5-----------7-------|
A |---3-----------5(strum 8x)-7-(16X)-|
E |---------------3-----------5-------|

Guitar II:

e |----------------------------------------|
b |----------------------------------------|
g |---5------------------------------------|
D |---5-----------5-----------7------------|
A |---3-3/5/7-----5(strum 8x)-7-(strum 8X)-|
E |---------------3-----------5-5/7/9/12---|

Guitar I & II:

e |----|
b |----|
g |-7~-|
D |-7~-|
A |-5~-|
E |----|

Lyrics

F#m        A              D
sa'n mapupulot ang pag asa
F#m        A              D
may katuwiran ba ang sana
F#m        A            D
ngiti ko ang iyong galak
F#m        A                D
langit ko ang iyong kandungan

Refrain:
    C                   g    
permiso sa isang araw na
           A
makasama ka
  C                  g
abiso ng pusong bulag
            A
na humahanga

Chorus:
D          g                   F#m
tama bang aminin na nating may taning 
      A
itong pag ibig natin
   D            g                  F#m 
dakila man wlang kasaysayang kakapit 
        A 
sa bulag na pag ibig

Verse:
san hihingi ng patawad
kung walang dalang dahilan
tangis ko ang yong luha
nais ko ang iyong kalayaan

Refrain pattern

Chorus pattern 2x

If Some Pattern is Not Right Please Let Me Know.
E-mail me at crossanarchy@yahoo.com

Thank You! Enjoy Playing! Rock Rulez! Peace Out! ^_~!

-End
Comments