Imagine Dragons - Radioactive Chords & Tabs

 

Radioactive Chords & Tabs

Imagine Dragons Chords & Tabs

Version: 2 Type: Bass Tab 0 ratings
1 star 2 stars 3 stars 4 stars 5 stars
comments

Radioactive Bass Tab

credit to songsterr for sheet music/tabs

Intro - 
G|---------|---------|-------------|X3
D|---------|---------|-------------|X3
A|-2~------|-5~------|-0~----------|X3
E|---------|---------|-------------|X3

G|-----------|
D|-----------|
A|-2~--------|
E|-----------|

Verse 1 - 
G|------------|------------|------------|------------|
D|------------|------------|------------|------------|
A|-2--2--2--2-|-5--5--5--5-|-0--0--0--0-|------------|
E|------------|------------|------------|-0--0--0--0-|

G|------------|------------|-----------|
D|------------|------------|-----------|
A|-2--2--2--2-|-5--5--5--5-|-0--0------|
E|------------|------------|-----------|

G|------------|------------|------------|------------|
D|------------|------------|------------|------------|
A|-2--2--2--2-|-5--5--5--5-|-0--0--0--0-|------------|
E|------------|------------|------------|-0--0--0--0-|

G|------------|------------|------------|------------|
D|------------|------------|------------|------------|
A|-2--2--2--2-|-5--5--5--5-|-0--0--0--0-|------------|
E|------------|------------|------------|-4----------|

Chorus 1 -
G|------------|------------|------------|------------|X3
D|------------|------------|------------|------------|X3
A|-2--2--2--2-|-5--5--5--5-|-0--0--0--0-|------------|X3
E|------------|------------|------------|-4--4--4--4-|X3

G|------------|------------|-------------|-------------|
D|------------|------------|-------------|-------------|
A|-2--2--2--2-|-5--5--5--5-|--2-2-2-2--2-|--2-2-2-2--2-|
E|------------|------------|-------------|-------------|
[ Tab from: http://www.guitartabs.cc/tabs/i/imagine_dragons/radioactive_btab_ver_2.html ]
Verse 2 - 
G|------------|------------|------------|------------|X3
D|------------|------------|------------|------------|X3
A|-2--2--2--2-|-5--5--5--5-|-0--0--0--0-|------------|X3
E|------------|------------|------------|-0--0--0--0-|X3

G|------------|------------|------------|------------|
D|------------|------------|------------|------------|
A|-2--2--2--2-|-5--5--5--5-|-0--0--0--0-|------------|
E|------------|------------|------------|-4----------|

Chorus 2 - 
G|------------|------------|------------|------------|X3
D|------------|------------|------------|------------|X3
A|-2--2--2--2-|-5--5--5--5-|-0--0--0--0-|------------|X3
E|------------|------------|------------|-4--4--4--4-|X3

G|------------|------------|-------------|-------------|
D|------------|------------|-------------|-------------|
A|-2--2--2--2-|-5--5--5--5-|--2-2-2-2--2-|--2-2-2-2--2-|
E|------------|------------|-------------|-------------|

Bridge - X2
G|------------|------------|------------|------------|
D|------------|------------|------------|------------|
A|-2----------|-5----------|-0----------|------------|
E|------------|------------|------------|-0----------|

Chorus 3 - 
G|------------|------------|------------|------------|X3
D|------------|------------|------------|------------|X3
A|-2--2--2--2-|-5--5--5--5-|-0--0--0--0-|------------|X3
E|------------|------------|------------|-4--4--4--4-|X3

G|------------|------------|-------------|-------------|------|
D|------------|------------|-------------|-------------|------|
A|-2--2--2--2-|-5--5--5--5-|--2-2-2-2--2-|--2-2-2-2--2-|-(2)--|
E|------------|------------|-------------|-------------|------|

Thats it, enjoy.
Comments