Imagine Dragons - Amsterdam Chords & Tabs

 

Amsterdam Chords & Tabs

Imagine Dragons Chords & Tabs

Version: 1 Type: Bass Tab 0 ratings
1 star 2 stars 3 stars 4 stars 5 stars
comments

Amsterdam Bass Tab

   
------------------------------
 Amsterdam by Imagine Dragons
------------------------------

Intro
G|---------------------------------------------------------------------------|
D|---------------------------------------------------------------------------|
A|-x-x-x-x-x-x-x-x-7-7-7-7-7-7-7-7-4-4-4-4-4-4-4-4-4-------------------------|
E|---------------------------------------------------4-4-4-4-4-4-4-4---------|

G|---------------------------------------------------------------------------|
D|---------------------------------------------------------------------------|
A|-----------------7-7-7-7-7-7-7-7-4-4-4-4-4-4-4-4-4-------------------------|
E|-4-4-4-4-4-4-4-4-----------------------------------4-4-4-4-4-4-4-4---------|

G|-----------------|
D|-----------------|
A|-----------------|
E|-5-5-5-5-5-5-5-5-|

Verse
G|---------------------------------------------------------------------------|
D|---------------------------------------------------------------------------|
A|-7-7-7-7-7-7-7-7-4-4-4-4-4-4-4-4-------------------------------------------|
E|---------------------------------4-4-4-4-4-4-4-4-4-4-4-4-4-4-4-4-----------|

G|---------------------------------------------------------------------------|
D|---------------------------------------------------------------------------|
A|-7-7-7-7-7-7-7-7-4-4-4-4-4-4-4-4-------------------------------------------|
E|---------------------------------4-4-4-4-4-4-4-4-5-5-5-5-5-5-5-5-----------|

G|---------------------------------------------------------------------------|
D|---------------------------------------------------------------------------|
A|-7-7-7-7-7-7-7-7-4-4-4-4-4-4-4-4-------------------------------------------|
E|---------------------------------4-4-4-4-4-4-4-4-4-4-4-4-4-4-4-4-----------|

G|---------------------------------------------------------------------------|
D|---------------------------------------------------------------------------|
A|-7-7-7-7-7-7-7-7-4-4-4-4-4-4-4-4-------------------------------------------|
E|---------------------------------4-4-4-4-4-4-4-4-4-4-4-4-4-4-4-4-----------|

G|---------------------------------------------------------------------------|
D|---------------------------------------------------------------------------|
A|-7-7-7-7-7-7-7-7-4-4-4-4-4-4-4-4-------------------------------------------|
E|---------------------------------4-4-4-4-4-4-4-4-5-5-5-5-5-5-5-5-----------|

Pre-chorus
G|---------------------------------------------------------------------------|
D|---------------------------------------------------------------------------|
A|-x-x-x-x-x-x-x-x-----------------------------------------------------------|
E|---------------------------------------------------------------------------|
[ Tab from: http://www.guitartabs.cc/tabs/i/imagine_dragons/amsterdam_btab.html ]
Chorus x2
G|---------------------------------------------------------------------------|
D|---------------------------------------------------------------------------|
A|-7-7-7-7-7-7-7-7-2-2-2-2-2-2-2-2-------------------------------------------|
E|---------------------------------5-5-5-5-5-5-5-5-5-5-5-5-5-5-5-5-----------|

Verse 2
G|---------------------------------------------------------------------------|
D|---------------------------------------------------------------------------|
A|-7-7-7-7-7-7-7-7-4-4-4-4-4-4-4-4-------------------------------------------|
E|---------------------------------4-4-4-4-4-4-4-4-5-5-5-5-5-5-5-5-----------|

G|---------------------------------------------------------------------------|
D|---------------------------------------------------------------------------|
A|-7-7-7-7-7-7-7-7-4-4-4-4-4-4-4-4-------------------------------------------|
E|---------------------------------4-4-4-4-4-4-4-4-4-4-4-4-4-4-4-4-----------|

G|---------------------------------------------------------------------------|
D|---------------------------------------------------------------------------|
A|-7-7-7-7-7-7-7-7-4-4-4-4-4-4-4-4-------------------------------------------|
E|---------------------------------4-4-4-4-4-4-4-4-5-5-5-5-5-5-5-5-----------|

Pre-chorus
G|---------------------------------------------------------------------------|
D|---------------------------------------------------------------------------|
A|-x-x-x-x-x-x-x-x-----------------------------------------------------------|
E|---------------------------------------------------------------------------|

Chorus x4
G|---------------------------------------------------------------------------|
D|---------------------------------------------------------------------------|
A|-7-7-7-7-7-7-7-7-2-2-2-2-2-2-2-2-------------------------------------------|
E|---------------------------------5-5-5-5-5-5-5-5-5-5-5-5-5-5-5-5-----------|

Bridge
G|--------------4-----------4------------------------------------------------|
D|---------------------------------------------------------------------------|
A|-2~-2-2-2-2-2---2-2-2-2-2---2-2-2-2-2-2-2-2-2-2-2-2-/10-10-10-10-9-9-9-9---|
E|-------------------------------------------------------------------------0~|

G|---------------------------------------------------------------------------|
D|---------------------------------------------------------------------------|
A|-----/7~-----/7~-----/7~---------------------------------------------------|
E|-0-0-----0-0-----0-0-----0-0-0-0-0-0-0-0-----------------------------------|

Chorus x4
G|---------------------------------------------------------------------------|
D|---------------------------------------------------------------------------|
A|-7-7-7-7-7-7-7-7-2-2-2-2-2-2-2-2-------------------------------------------|
E|---------------------------------5-5-5-5-5-5-5-5-5-5-5-5-5-5-5-5-----------|

G|---------------------------------------------------------------------------|
D|---------------------------------------------------------------------------|
A|---------------------------------------------------------------------------|
E|-0-0-0-0-0-0-0-0-0-0-0-0-0-0-0-0-0-0-0-0-0-0-0-0-0-0-0-0-0-0-0-0-0~--------|
Comments