Ima Robot - Dynomite Chords & Tabs

 

Dynomite Chords & Tabs

Ima Robot Chords & Tabs

Version: 2 Type: Bass Tab 0 ratings
1 star 2 stars 3 stars 4 stars 5 stars
comments

Dynomite Bass Tab

Ima Robot - Dynomite
Album: Ima Robot
Tabber: Muciņo
***********************************
Hi!
Here is mi first tab, i think is the 95% correct, you can listen the song for the rythm, 
hope you like it, the song sounds like the real song...


INTRO
G---------------------------------------------------------|
D---------------------------------------------------------|
A---------------------------------------------------------|
E----0/555--0/555--0/555--0/555---------------------------|

VERSE
G---------------------------------------------------------|
D---------------------------------------------------------|
A---------------------------------------------------------|
E----0/555--0/555--0/555--0/555---------------------------|


G---------------------------------------------------------|
D---------------------------------------------------------|
A---------------------------------------------------------|
E----10/333--10/333--0/555--0/555-------------------------|

THE GUITAR STARTS
"No, I Wanna Wait For Someone Like You..."
G---------------------------------------------------------|
D---------------------------------------------------------|
A----0/6--6-6-6---4-4-4-4---------------------------------|
E---------------------------------------------------------|

G---------------------------------------------------------|
D---------------------------------------------------------|
A---------------------------------------------------------|
E----0/555--0/555-----------------------------------------|

G---------------------------------------------------------|
D---------------------------------------------------------|
A---------------------------------------------------------|
E----0/555--0/555--0/555--0/555---------------------------|

G----------------------------------------------------------|
D----------------------------------------------------------|
A----------------------------------------------------------|
E----10/333--10/333--0/555--0/555--------------------------|

"No, I Wanna Wait For Someone Like You..."
G---------------------------------------------------------|
D---------------------------------------------------------|
A----0/6--6-6-6---4-4-4-4---------------------------------|
E---------------------------------------------------------|

"No, I Wanna Wait For Someone Like You, To Make My Life So Dynomite!"
G---------------------------------------------------------|
D---------------------------------------------------------|
A----0/6--6-6-6---4-4-4-4---------------------------------|
E---------------------------3-3-3-3----5-5-5-5------------|

G---------------------------------------------------------|
D---------------------------------------------------------|
A---99999999---------------55555555---44444444------------|   x 3
E--------------55555555-----------------------------------|


G----------------------------------------------------------|
D----------------------------------------------------------|
A---99999999-------------5555555555555555-444444444444-7-8-|
E-------------55555555-------------------------------------|
[ Tab from: http://www.guitartabs.cc/tabs/i/ima_robot/dynomite_btab_ver_2.html ]
ONLY BASS
G---------------------------------------------------------|
D---------------------------------------------------------|
A---------------------------------------------------------|
E----0/555--0/555--0/555--0/555---------------------------|

G---------------------------------------------------------|
D---------------------------------------------------------|
A---------------------------------------------------------|
E----0/555--0/555--0/555--0/555---------------------------|

G---------------------------------------------------------|
D---------------------------------------------------------|
A---------------------------------------------------------|
E----10/333--10/333--0/555--0/555-------------------------|

"No, I Wanna Wait For Someone Like You..."
G---------------------------------------------------------|
D---------------------------------------------------------|
A----0/6--6-6-6---4-4-4-4---------------------------------|
E---------------------------------------------------------|

"No, I Wanna Wait For Someone Like You, To Make My Life So Dynomite!"
G---------------------------------------------------------|
D---------------------------------------------------------|
A----0/6--6-6-6---4-4-4-4---------------------------------|
E---------------------------3-3-3-3----5-5-5-5------------|

G---------------------------------------------------------|
D---------------------------------------------------------|
A---99999999---------------55555555---44444444------------|   x 3
E--------------55555555-----------------------------------|


G----------------------------------------------------------|
D----------------------------------------------------------|
A---99999999-------------5555555555555555-8888888888888888-|
E-------------55555555-------------------------------------|

G---------------------------------------------------------|
D---------------------------------------------------------|
A---101010101010101010101010-11-12------------------------|
E---------------------------------------------------------|

ONLY BASS
G---------------------------------------------------------|
D---------------------------------------------------------|
A---------------------------------------------------------|
E----0/555--0/555-----------------------------------------|


G---------------------------------------------------------|
D---------------------------------------------------------|
A---------------------------------------------------------|
E----0/555--0/555--0/555--0/555---------------------------|

G---------------------------------------------------------|
D---------------------------------------------------------|
A---------------------------------------------------------|
E----10/333--10/333--0/555--0/555-------------------------|

"No, I Wanna Wait For Someone Like You, To Make My Life So Dynomite!"
G---------------------------------------------------------|
D---------------------------------------------------------|
A----0/6--6-6-6---4-4-4-4---------------------------------|
E---------------------------3-3-3-3----5-5-5-5------------|

G---------------------------------------------------------|
D---------------------------------------------------------|
A---99999999---------------55555555---44444444------------|   x 2
E--------------55555555-----------------------------------|

G----------------------------------------------------------|
D----------------------------------------------------------|
A---99999999-------------5555555555555555-444444444444-7-8-|
E-------------55555555-------------------------------------|
Comments