Illdisposed - Dark Chords & Tabs

 

Dark Chords & Tabs

Illdisposed Chords & Tabs

Version: 1 Type: Tab 0 ratings
1 star 2 stars 3 stars 4 stars 5 stars
comments

Dark Tab

   
Illdisposed - Dark

Tabbed by: Insomnia
Email/MSN: gertk666@hotmail.com
Date: 29.08.05

Illdisposed - Dark

Album: 1-800 Vindication


Tune: B - E - A - D - Gb - B


Riff 1
|--------------------|
|--------------------|
|--------------------|
|--------------------|
|--------------------|
|-800060001200013000-|


Riff 1A			Break
|------------------|	|---------|
|------------------|	|---------|
|------------------|	|---------|
|------------------|	|---------|
|-3-------7---8----|	|-2h302---|
|--5356535-535-535-|	|------32-|
   ....... ... ...           ....


Verse
|---------------------------------------------------------------------|
|---------------------------------------------------------------------|
|---------------------------------------------------------------------|
|-2-----4\5-----4---2----------------2-2-2-2-2-2-2-2-5---5\74--4-4444-|
|-2-----2\3-----2---2----5\7-----4---2-2-2-2-2-2-2-2-3---3\52--2-2222-|
|-0-000-----000---000000-3\5-000-2-000-0-0-0-0-0-0-0----0-------------|
    ...     ...   .. ...     ...   ..                   .      . ....


Bridge Gtr 1
|-----------------------------------------------------------------------|
|-----------------------------------------------------------------------|
|-----------------------------------------------------------------------|
|-----------------------------------------------------------------------|
|-5-5-5-7-7-7-8-8-8-8-8-8-8-8-8-8-7-7-7-8-8-8-101010101010101010105-5-5-|
|-3-3-3-5-5-5-6-6-6-6-6-6-6-6-6-6-5-5-5-6-6-6-8-8-8-8-8-8-8-8-8-8-3-3-3-|

----------------------------------------------------------|
----------------------------------------------------------|
----------------------------------------------------------|
----------------------------------------------------------|
-7-7-7-8-8-8-8-8-8-8-8-8-8-7-7-7-8-8-8-101012-12-12-12-12-|
-5-5-5-6-6-6-6-6-6-6-6-6-6-5-5-5-6-6-6-8-8-10-10-10-10-10-|

[ Tab from: http://www.guitartabs.cc/tabs/i/illdisposed/dark_tab.html ]
Bridge Gtr 2
|------------------------------------------------------------------------|
|-----------------888888101010111110101010101010101313131313131111111010-|
|------------------------------------------------------------------------|
|-----------------555555777777888877777777777777771010101010108888887777-|
|------------------------------------------------------------------------|
|------------------------------------------------------------------------|

-----------------------------------------------------------------------|
8888888888888888888888101010111110101011111113131313151515151515151515-|
-----------------------------------------------------------------------|
5555555555555555555555777777888877777788888810101010121212121212121212-|
-----------------------------------------------------------------------|
-----------------------------------------------------------------------|


Melodic Gtr 1
|-----------------------------------------------|
|-----------------------------------------------|
|-----------------------------------------------|
|-----9---------------2---7-9-999-5-555-444-444-|
|-3---7-----3---10----2---5-7-777-3-333-222-222-|
|-1-0-7-----1-0-8-----0-00----------------------|
    .         .         ..    ..    ..  ..  ..

Melodic Gtr 2
|----------------------------------------------------------------|
|----------------------------------------------------------------|
|-1212129999-----9\17-17-17-17-17/12-12-12/10-14-16-----16\17-12-|
|----------------------------------------------------------------|
|-1010107777-----7\15-15-15-15-15/14-14-14/12-12-14-----14\15-10-|
|----------------------------------------------------------------|

-----------------|
-----------------|
-----12\14-9-----|
-----------------|
-----10\12-7-----|
-----------------|

Upstart solo
|---------------------------------------------------------|
|---------------------------------------------------------|
|---------------------------------------------------------|
|-9-9-----------9-9-----------9-9-----------4-4--5-5--7---|
|-7-7--7-7--9---7-7--7-7--5---7-7--7-7--9---5-5--5-5--5---|
|----008-8007-00---008-8007-00---008-8007-00---00---00-00-|
     ..   ..  ..   ..   ..  ..   ..   ..  ..   ..   .. ..


Solo
|-----------------------------------------------------------|
|-----------------------------------------------------------|
|-----------------------------------------------------------|
|----------------------------------------------4----5----7--|
|---7----7----9---7----7----5---7----7----9--5--555--555--5-|
|-0--008--887--70--008--887--70--008--887---7---------------|
     ..   ..       ..            ..             ..   ..

ey 'o' ey... ENJOY! \m/
Comments