Ill Nino - What You Deserve Chords & Tabs

 

What You Deserve Chords & Tabs

Ill Nino Chords & Tabs

Version: 1 Type: Tab 0 ratings
1 star 2 stars 3 stars 4 stars 5 stars
comments

What You Deserve Tab

Ill Nino - What You Deserve - One Nation Underground

Tabbed by Elvisz(elvisz@kornkids.com)
                (elvisz84@yahoo.com)

Tunning: CGCfad

Intro:
|-------------------|
|-------------------|
|-7-77-777-7-77-777-|	(Guitar1)
|-------------------|
|-------------------|
|-------------------|

|-------------------|
|-------------------|
|-7-77-777-7-77-777-|	(Guitar2)
|-x-xx-xxx-x-xx-xxx-|
|-5-55-555-5-55-555-|
|-------------------|

Pre-Verse:
|-------------------------------------------|
|-------------------------------------------|
|-7777777777777777--------------------------|	(Guitar1)
|-----------------1010101010101010777777777-|
|-------------------------------------------|
|-------------------------------------------|

|----------------------------------|
|----------------------------------|
|-----8-7------8-7-----8-5-----8-7-|	(Guitar2)
|-----x-x------x-x-----x-x-----x-x-|
|-----6-5------6-5-----6-3-----6-5-|
|-000--0---000--0--888--8--555--5--|
  ...  .   ...  .  ...  .  ...  .    .palm mute

Verse:
|----------------------------------|
|----------------------------------|
|-----77777777-----101010-----5555-|	(Guitar1 & Guitar2)
|----------------------------------|
|----------------------------------|
|-000----------888--------555------|
  ...          ...        ...        .palm mute

Fill1:
|---------|
|---------|
|--7~~~~~-|	(Guitar1 & Guitar2)
|--7~~~~~-|
|--5~~~~~-|
|-(0)~~~~-|

Chorus:
|----------------------|--------------------------|
|-33333333111111118888-|-333333331111111113131213-|
|-22222222101010107777-|-222222221010101012121212-|	(Guitar1)
|-00000000 8 8 8 85555-|-00000000 8 8 8 810101010-|
|-00000000 8 8 8 85555-|-00000000 8 8 8 810101010-|
|-00000000 8 8 8 85555-|-00000000 8 8 8 810101010-|

|-------------|--------------|
|-------------|--------------|
|-------------|--------------|	(Guitar2)
|-0~~~~8~~5~~-|-0~~~~8~~10~~-|
|-0~~~~8~~5~~-|-0~~~~8~~10~~-|
|-0~~~~8~~5~~-|-0~~~~8~~10~~-|

|----------------------|----------------------------------|
|-33333333111111118888-|-11111111111111111313121313131313-|
|-22222222101010107777-|-10101010101010101212121212121212-|	(Guitar1)
|-00000000 8 8 8 85555-|- 8 8 8 8 8 8 8 81010101010101010-|
|-00000000 8 8 8 85555-|- 8 8 8 8 8 8 8 81010101010101010-|
|-00000000 8 8 8 85555-|- 8 8 8 8 8 8 8 81010101010101010-|

|-------------|--------------------------|
|-------------|--------------------------|
|-------------|--------------------------|	(Guitar2)
|-0~~~~8~~5~~-|-888888881010101010101010-|
|-0~~~~8~~5~~-|-888888881010101010101010-|
|-0~~~~8~~5~~-|-888888881010101010101010-|

Pre-Verse:
|-------------------------------------------|
|-------------------------------------------|
|-7777777777777777--------------------------|	(Guitar1)
|-----------------1010101010101010777777777-|
|-------------------------------------------|
|-------------------------------------------|

|----------------------------------|
|----------------------------------|
|-----8-7------8-7-----8-5-----8-7-|	(Guitar2)
|-----x-x------x-x-----x-x-----x-x-|
|-----6-5------6-5-----6-3-----6-5-|
|-000--0---000--0--888--8--555--5--|
  ...  .   ...  .  ...  .  ...  .    .palm mute

Verse:
|----------------------------------|
|----------------------------------|
|-----77777777-----101010-----5555-|	(Guitar1 & Guitar2)
|----------------------------------|
|----------------------------------|
|-000----------888--------555------|
  ...          ...        ...        .palm mute

Fill2:
|---------|
|---------|
|--7~~~~~-|	(Guitar1 & Guitar2)
|--7~~~~~-|
|--5~~~~~-|
|-(0)~~~~-|

Chorus:
|----------------------|--------------------------|
|-33333333111111118888-|-333333331111111113131213-|
|-22222222101010107777-|-222222221010101012121212-|	(Guitar1)
|-00000000 8 8 8 85555-|-00000000 8 8 8 810101010-|
|-00000000 8 8 8 85555-|-00000000 8 8 8 810101010-|
|-00000000 8 8 8 85555-|-00000000 8 8 8 810101010-|

|-------------|--------------|
|-------------|--------------|
|-------------|--------------|	(Guitar2)
|-0~~~~8~~5~~-|-0~~~~8~~10~~-|
|-0~~~~8~~5~~-|-0~~~~8~~10~~-|
|-0~~~~8~~5~~-|-0~~~~8~~10~~-|
[ Tab from: http://www.guitartabs.cc/tabs/i/ill_nino/what_you_deserve_tab.html ]
|----------------------|----------------------------------|
|-33333333111111118888-|-11111111111111111313121313131313-|
|-22222222101010107777-|-10101010101010101212121212121212-|	(Guitar1)
|-00000000 8 8 8 85555-|- 8 8 8 8 8 8 8 81010101010101010-|
|-00000000 8 8 8 85555-|- 8 8 8 8 8 8 8 81010101010101010-|
|-00000000 8 8 8 85555-|- 8 8 8 8 8 8 8 81010101010101010-|

|-------------|--------------------------|
|-------------|--------------------------|
|-------------|--------------------------|	(Guitar2)
|-0~~~~8~~5~~-|-888888881010101010101010-|
|-0~~~~8~~5~~-|-888888881010101010101010-|
|-0~~~~8~~5~~-|-888888881010101010101010-|

Bridge:
|------------------|----------------------------------|
|-3333444466668888-|-11111111111111113333333366666666-|
|-2222333355557777-|-10101010101010102222222255555555-|	(Guitar1)
|-0000222233335555-|- 8 8 8 8 8 8 8 80000000033333333-|
|-0000222233335555-|- 8 8 8 8 8 8 8 80000000033333333-|
|-0000222233335555-|- 8 8 8 8 8 8 8 80000000033333333-|

|--------------|-----------------|
|--------------|-----------------|
|--------------|-----------------|	(Guitar2)
|-0~~2~~3~~5~~-|-8~~~~0~~~~3~~~~-|
|-0~~2~~3~~5~~-|-8~~~~0~~~~3~~~~-|
|-0~~2~~3~~5~~-|-8~~~~0~~~~3~~~~-|

|--------------------------|
|--------------------------|
|-777799991010101012121212-|	(Guitar3)
|-xxxxxxxxxxxxxxxxxxxxxxxx-|
|-55557777 8 8 8 810101010-|
|--------------------------|

Fill3:
|-----------------------|
|-33334444666688886~~~~-|
|-22223333555577775~~~~-|	(Guitar1)
|-00002222333355553~~~~-|
|-00002222333355553~~~~-|
|-00002222333355553~~~~-|

|-------------------|
|-------------------|
|-------------------|	(Guitar2)
|-0~~2~~3~~5~~3~~~~-|
|-0~~2~~3~~5~~3~~~~-|
|-0~~2~~3~~5~~3~~~~-|

|--------------------------------|
|--------------------------------|
|-77779999101010101212121210~~~~-|	(Guitar3)
|-xxxxxxxxxxxxxxxxxxxxxxxxxx~~~~-|
|-55557777 8 8 8 810101010 8~~~~-|
|--------------------------------|

Chorus:
|----------------------|--------------------------|
|-33333333111111118888-|-333333331111111113131213-|
|-22222222101010107777-|-222222221010101012121212-|	(Guitar1)
|-00000000 8 8 8 85555-|-00000000 8 8 8 810101010-|
|-00000000 8 8 8 85555-|-00000000 8 8 8 810101010-|
|-00000000 8 8 8 85555-|-00000000 8 8 8 810101010-|

|-------------|--------------|
|-------------|--------------|
|-------------|--------------|	(Guitar2)
|-0~~~~8~~5~~-|-0~~~~8~~10~~-|
|-0~~~~8~~5~~-|-0~~~~8~~10~~-|
|-0~~~~8~~5~~-|-0~~~~8~~10~~-|

|----------------------|----------------------------------|
|-33333333111111118888-|-11111111111111111313121313131313-|
|-22222222101010107777-|-10101010101010101212121212121212-|	(Guitar1)
|-00000000 8 8 8 85555-|- 8 8 8 8 8 8 8 81010101010101010-|
|-00000000 8 8 8 85555-|- 8 8 8 8 8 8 8 81010101010101010-|
|-00000000 8 8 8 85555-|- 8 8 8 8 8 8 8 81010101010101010-|

|-------------|--------------------------|
|-------------|--------------------------|
|-------------|--------------------------|	(Guitar2)
|-0~~~~8~~5~~-|-888888881010101010101010-|
|-0~~~~8~~5~~-|-888888881010101010101010-|
|-0~~~~8~~5~~-|-888888881010101010101010-|

Pre-Verse:
|-------------------------------------------|
|-------------------------------------------|
|-7777777777777777--------------------------|	(Guitar1)
|-----------------1010101010101010777777777-|
|-------------------------------------------|
|-------------------------------------------|

|----------------------------------|
|----------------------------------|
|-----8-7------8-7-----8-5-----8-7-|	(Guitar2)
|-----x-x------x-x-----x-x-----x-x-|
|-----6-5------6-5-----6-3-----6-5-|
|-000--0---000--0--888--8--555--5--|
  ...  .   ...  .  ...  .  ...  .    .palm mute


Outro:
|-------|
|-3~~~~-|
|-2~~~~-|	(Guitar1)
|-0~~~~-|
|-0~~~~-|
|-0~~~~-|

|-------|
|-------|
|-------|	(Guitar2)
|-0~~~~-|
|-0~~~~-|
|-0~~~~-|

(this part is played over the chorus too, but i think its a synth)
|---------------------------------|
|-----1-------1-------1-------1---|    
|---2---2---2---2---2---2---2---2-|    
|-0~~~~~~~0~~~~~~~8~~~~~~~5~~~~~~~|    
|---------------------------------|
|---------------------------------|
Comments