Ill Nino - What You Deserve Chords & Tabs

 

What You Deserve Chords & Tabs

Ill Nino Chords & Tabs

Version: 1 Type: Bass Tab

What You Deserve Bass Tab

-------------------------------------------------------------------------------
			     WHAT YOU DESERVE - Ill Nino
-------------------------------------------------------------------------------
Tuning: CGCF

Intro:
|--------------------|--------------------|
|--------------------|--------------------|
|--------------------|--------------------|
|-0-0-0--0--0-0-0--0-|-8-8-8--8--5-5-5--5-| x2


Verse:
|--------------------|--------------------|
|--------------------|--------------------|
|--------------------|--------------------|
|-0-0-0--------------|-8-8-8-----5-5-5----| x4

|-----------------|
|-----------------|
|-----------------|
|-8-(let ring)----|


Chorus:
|-------------------|-----------------|-----------------|-----------------|
|-------------------|-----------------|-----------------|-----------------|
|-------------------|-----------------|-----------------|-----------------|
|-0-0-0-0-0-0-0-0-0-|-0-0-0-0-0-0-0-0-|-8-8-8-8-8-8-8-8-|-5-5-5-5-5-5-5-5-| x3
[ Tab from: http://www.guitartabs.cc/tabs/i/ill_nino/what_you_deserve_btab.html ]
|-------------------|-----------------|
|-------------------|-----------------|
|-------------------|-----------------|
|-8-8-8-8-8-8-8-8-8-|-8-8-8-8-8-8-8-8-|

|-------------------------|-------------------------|
|-------------------------|-------------------------|
|-------------------------|-------------------------|
|-10-10-10-10-10-10-10-10-|-10-10-10-10-10-10-10-10-| 


  -Intro


  -Verse


  -Chorus


Interlude:
|------------|--------------|----------------|--------------|
|------------|--------------|----------------|--------------|
|------------|--------------|----------------|--------------|
|-0--2--3--5-|-8--8-8-8-8-8-|-0--0-0-0-0-0-0-|-3--3-3-3-3-3-| x2

|------------|--------------|
|------------|--------------|
|------------|--------------|
|-0--2--3--5-|-8-(let ring)-|


  -Chorus


Outro:
|--------------------|--------------------|
|--------------------|--------------------|
|--------------------|--------------------|
|-0-0-0--0--0-0-0--0-|-8-8-8--8--5-5-5--5-| x4