Ill Nino - What Comes Around Chords & Tabs

 

What Comes Around Chords & Tabs

Ill Nino Chords & Tabs

Version: 3 Type: Tab 0 ratings
1 star 2 stars 3 stars 4 stars 5 stars
comments

What Comes Around Tab

   
Artist - Ill Nino
Title  - What Comes Around
Tab    - Volt3r (Volt3r@mail.ru) ICQ = 228639154

-----------------------------------------------

Tuning - CGCFAD
Tempo  - 112

Disto.
|-----------------------||-----------------------------|2x
|-----------------------||-----------------------------|
|-----------------------||--------------5-5-5---5-5-5--|
|--1-0-x-0-0-3-1-x-1-1--||--1-0-x-0-x---5-5-5---5-5-5--|
|--1-0-x-0-0-3-1-x-1-1--||--1-0-x-0-x-x-3-3-3-x-3-3-3--|
|--1-0-x-0-0-3-1-x-1-1--||--1-0-x-0-x-x-------x--------|
   e e s e s e e s e s      e e s e s s s s s s s s s

Clean\delay  
|---------------------------------------------------|
|--15-15-15-15-15-15-15-15-15-15-15-15-15-15-15-15--|
|---------------------------------------------------|
|---------------------------------------------------| \
|---------------------------------------------------|  \
|---------------------------------------------------|   \
   s  s  s  s  s  s  s  s  s  s  s  s  s  s  s  s        \4x
                                                         /
|--13-13-13-13-13-13-12-12-12-12-12-12-15-15-15-15--|   /
|---------------------------------------------------|  /
|---------------------------------------------------| /
|---------------------------------------------------|
|---------------------------------------------------|
|---------------------------------------------------|
   s  s  s  s  s  s  s  s  s  s  s  s  s  s  s  s

Disto.
|---------------------------------------------------|
|---------------------------------------------------|
|---------------------------------------------------|
|---------------------------------------------------|
|--12-12-12-12-12-12-12-12-12-12-12-12-12-12-12-12--| __
|--12-12-12-12-12-12-12-12-12-12-12-12-12-12-12-12--|   |
   s  s  s  s  s  s  s  s  s  s  s  s  s  s  s  s       |
                                                        |
|-----------------------------------------|             | 
|-----------------------------------------|             | 3x
|-----------------------------------------|             |
|-----------------------------------------|             |
|--8-8-8-8-8-8-10-10-10-10-10-10-3-3-3-3--|             |
|--8-8-8-8-8-8-10-10-10-10-10-10-3-3-3-3--| ____________|
   s s s s s s s  s  s  s  s  s  s s s s

|---------------------------------------------------|
|---------------------------------------------------|
|---------------------------------------------------|
|---------------------------------------------------|
|--12-12-12-12-12-12-12-12-12-12-12-12-12-12-12-12--|
|--12-12-12-12-12-12-12-12-12-12-12-12-12-12-12-12--|
   s  s  s  s  s  s  s  s  s  s  s  s  s  s  s  s

1st guitar     Disto.
|---------------------|------------------------------| 4x
|---------------------|------------------------------|
|--7-7-7-7-7-7-7-7-7--|--10-10-10-10-10-10-10-10-10--|
|--7-7-7-7-7-7-7-7-7--|--10-10-10-10-10-10-10-10-10--|
|--5-5-5-5-5-5-5-5-5--|--8--8--8--8--8--8--8--8--8---|
|--5-5-5-5-5-5-5-5-5--|--8--8--8--8--8--8--8--8--8---|
   e.s e e.e s e s s     e. s  e  e. e  s  e  s  s

2nd Guitar    Clean
|--------5------------|-----------8------------------|
|----8----------------|-----11-----------------------|
|--7------------------|--10--------------------------|
|---------------------|------------------------------|
|---------------------|------------------------------|
|---------------------|------------------------------|
   e.e.  h+e             e. e.    h+e

|--------5------------|-----8------------------------|
|----8----------------|-----------11-----------------|
|--7------------------|--10--------------------------|
|---------------------|------------------------------|
|---------------------|------------------------------|
|---------------------|------------------------------|
   e.e.  h+e             e. e.    h+e\

|--------5------------|-----------8------------------|
|----8----------------|-----11-----------------------|
|--7------------------|--10--------------------------|
|---------------------|------------------------------|
|---------------------|------------------------------|
|---------------------|------------------------------|
   e.e.  h+e             e. e.    h+e

|--------5------------|-----------8------------------|
|----8----------------|-----10-----------------------|
|--7------------------|--10--------------------------|
|---------------------|------------------------------|
|---------------------|------------------------------|
|---------------------|------------------------------| 
   e.e.  h+e             e. e.    h+e

Disto.
|-----------------------||-----------------------------| 3x
|-----------------------||-----------------------------|
|-----------------------||--------------5-5-5---5-5-5--|
|--1-0-x-0-0-3-1-x-1-1--||--1-0-x-0-x---5-5-5---5-5-5--|
|--1-0-x-0-0-3-1-x-1-1--||--1-0-x-0-x-x-3-3-3-x-3-3-3--|
|--1-0-x-0-0-3-1-x-1-1--||--1-0-x-0-x-x-3-3-3-x-3-3-3--|
   e e s e s e e s e s      e e s e s s s s s s s s s
[ Tab from: http://www.guitartabs.cc/tabs/i/ill_nino/what_comes_around_tab_ver_3.html ]
|-----------------------||--------------|
|-----------------------||--------------|
|-----------------------||------------5-|
|--1-0-x-0-0-3-1-x-1-1--||--1-0-x-0-x-5-|
|--1-0-x-0-0-3-1-x-1-1--||--1-0-x-0-x-3-|
|--1-0-x-0-0-3-1-x-1-1--||--1-0-x-0-x---|
   e e s e s e e s e s      e e s e s h 

Clean\delay  
|---------------------------------------------------|
|--15-15-15-15-15-15-15-15-15-15-15-15-15-15-15-15--|
|---------------------------------------------------|
|---------------------------------------------------| \
|---------------------------------------------------|  \
|---------------------------------------------------|   \
   s  s  s  s  s  s  s  s  s  s  s  s  s  s  s  s        \ 4x
                                                         /
|--13-13-13-13-13-13-12-12-12-12-12-12-15-15-15-15--|   /
|---------------------------------------------------|  /
|---------------------------------------------------| /
|---------------------------------------------------|
|---------------------------------------------------|
|---------------------------------------------------|
   s  s  s  s  s  s  s  s  s  s  s  s  s  s  s  s

Disto.
|---------------------------------------------------|
|---------------------------------------------------|
|---------------------------------------------------|
|---------------------------------------------------|
|--12-12-12-12-12-12-12-12-12-12-12-12-12-12-12-12--| __
|--12-12-12-12-12-12-12-12-12-12-12-12-12-12-12-12--|   |
   s  s  s  s  s  s  s  s  s  s  s  s  s  s  s  s       |
                                                        |
|-----------------------------------------|             | 
|-----------------------------------------|             | 3x
|-----------------------------------------|             |
|-----------------------------------------|             |
|--8-8-8-8-8-8-10-10-10-10-10-10-3-3-3-3--|             |
|--8-8-8-8-8-8-10-10-10-10-10-10-3-3-3-3--| ____________|
   s s s s s s s  s  s  s  s  s  s s s s

1st Guitar     Disto.
     <
|--------||--------|
|--------||--------|
|--R-----||--------|
|----10--||--HOLD--|
|----10--||--HOLD--|
|----8---||--HOLD--|
   h h       w

|---------------------|------------------------------| 8x
|---------------------|------------------------------|
|--7-7-7-7-7-7-7-7-7--|--10-10-10-10-10-10-10-10-10--|
|--7-7-7-7-7-7-7-7-7--|--10-10-10-10-10-10-10-10-10--|
|--5-5-5-5-5-5-5-5-5--|--8--8--8--8--8--8--8--8--8---|
|--5-5-5-5-5-5-5-5-5--|--8--8--8--8--8--8--8--8--8---|
   e.s e e.e s e s s     e. s  e  e. e  s  e  s  s

2nd Guitar     Disto.
|---------------------------------------------------||------|
|---------------------------------------------------||------|
|---------------------------------------------------||------|
|---------------------------------------------------||--10--|
|--12-12-12-12-12-12-12-12-12-12-12-12-12-12-12-12--||--8---|
|--12-12-12-12-12-12-12-12-12-12-12-12-12-12-12-12--||--8---|
   s  s  s  s  s  s  s  s  s  s  s  s  s  s  s  s       w
     
|-----||------| 8x
|-----||------|
|--7--||--10--|
|--7--||--10--|
|--5--||--8---|
|--5--||--8---|
   w      w

Acoustic guitar
|------0--||--HOLD--||------0--||--HOLD--| 2x
|------6--||--HOLD--||------8--||--HOLD--|
|------7--||--HOLD--||------7--||--HOLD--|	
|----7----||--------||----7----||--------|
|--5------||--------||--5------||--------|
|---------||--------||---------||--------|
   e.e.h+e    w         e.e.h+e    w

|------0--||------0--||------5--||------6--| 2x
|------6--||------8--||------6--||------6--|
|------7--||------7--||---------||---------|
|----7----||----7----||----7----||----7----|
|--5------||--5------||--5------||--5------|
|---------||---------||---------||---------|
   e.e.h+e    e.e.h+e    e.e.h+e    e.e.h+e

1st Guitar     Disto.
|------------------------------||---------------------| 7x
|------------------------------||---------------------|
|--10-10-10-10-10-10-10-10-10--||--7-7-7-7-7-7-7-7-7--|
|--10-10-10-10-10-10-10-10-10--||--7-7-7-7-7-7-7-7-7--|
|--8--8--8--8--8--8--8--8--8---||--5-5-5-5-5-5-5-5-5--|
|--8--8--8--8--8--8--8--8--8---||--5-5-5-5-5-5-5-5-5--|
   e. s  e  e. e  s  e  s  s       e.s e e.e s e s s

|------------------------------||---------------------------------|
|------------------------------||---------------------------------|
|--10-10-10-10-10-10-10-10-10--||---------------------------------|
|--10-10-10-10-10-10-10-10-10--||--1-0-0-0---0---0-3-1-1-1---1----|
|--8--8--8--8--8--8--8--8--8---||--1-0-0-0---0---0-3-1-1-1---1----|
|--8--8--8--8--8--8--8--8--8---||--1-0-0-0-x-0-x-0-3-1-1-1-x-1-x--|
   e. s  e  e. e  s  e  s  s       s s s s s s s s s s s s s s e

2nd Guitar     Disto.
|------||-----| 8x |------|
|------||-----|    |------|
|--10--||--7--|    |--10--|
|--10--||--7--|    |--10--|
|--8---||--5--|    |--8---|
|--8---||--5--|    |--8---|
   w       w          w

Mail me or contact with my by ICQ (228639154)
Comments