Ill Nino - What Comes Around Remix Chords & Tabs

 

What Comes Around Remix Chords & Tabs

Ill Nino Chords & Tabs

Version: 1 Type: Bass Tab 0 ratings
1 star 2 stars 3 stars 4 stars 5 stars
comments

What Comes Around Remix Bass Tab

   
Ill Nino - What Comes Around(Day Of The Dead Remix)
Submitted By: Derek Donaldson
EMail: zero_hour_666@msn.com


Tuning for 4 strings: C-G-C-F
Tuning for 5 strings: Just don\'t play the low B string  ( :

A song can be played in a variety of different tunings. Duh!
I used a 4 for this song using C-G-C-F.
So, with that, don\'t bust my balls, you hear,
ESPECIALLY you 14 year old pain-in-da-ass newbies.  ( :

  h = hammer on or off
  / = slide up
  \\ = slide down
  ~ = Let note ring
  ^ = String Bend (Up, Down, Both - Who cares)

F:------------------------------------------------|
C:-------0~------3--------------------------------|
G:-----------------5\\6---------------------------|
C:--1h0~--------------------1-0~--------h10-------|

F:---------------------------------7-7-5--7-7-5-5-|
C:------0~-------3--------------------------------|
G:-----------------5\\6---------------------------|
C:--1h0~-----------------1-0~---------------------|


Part (a)          2 times
F:----------------------------5-7-7-5-7-7-5-------|
C:---------3--------------------------------------|
G:-----------5-6----------------------------------|
C:--1-0-0------------1-0-0------------------------|

Part (b)          4 times
F:------------------------------------------------|
C:------------------------------------------------|
G:------------------1~----3~----\\^8~-------------|
C:--0~-------------------------3------------------|

Part (c)          4 times
F:------------------------------------------------
C:------------------------------------------------
G:------------------------------------------------
C:--0-0-0-0-0-0-0-0-0-0-0-0-0-0-0-0---------------

--------------------------------------------------|
--------------------------------------------------|
--1-1-1-1-1-1--3-3-3-3-3---\\8-8-8-8-8------------|
-------------------------3------------------------|

[ Tab from: http://www.guitartabs.cc/tabs/i/ill_nino/what_comes_around_remix_btab.html ]
Part (d)
F:--10--------------------------------------------|
C:---8--------------------------------------------|
G:------------------------------------------------|
C:------------------------------------------------|

Part (e)
F:------------------------------10----10---10---10---10-|
C:-------------------------------8--8----8----8----8----|
G:------------------------------------------------------|
C:--5-5--5-5--5-5--5-5--5-5-5-5-------------------------|

Part (F)
F:------------------------------10----------------|
C:-------------------------------8----8---8-------|
G:----------------------------------8---8---8-----|
C:--5-5--5-5--5-5--5-5--5-5-5-5-------------------|

Play Part (e)
Play Part (f)
Play Part (a) 4 times

F:------------------------------------------------|
C:------------------------------------------------|
G:--3~--------------------------------------------|
C:------------------------------------------------|

Play Part (b) 4 times
Play Part (c) 4 times
Play Part (d)
Play Part (e)
Play Part (f)
Play Part (e)
Play Part (f)
Play Part (e)
Play Part (f)
Play Part (e)
Play Part (f)

Part (G)
F:------------------------------------------------|
C:------------------------------------------------|
G:--5~--------------------------------------------|
C:------------------------------------------------|

Part (h)
F:------------------------------------------------|
C:------------------------------------------------|
G:--3-\\5~----------------------------------------|
C:------------------------------------------------|

Play Part (g)
Play Part (h)

F:------------------------------------------------|
C:----3------3------------------------------------|
G:--5---3-h5---3-h5-Keep repeating & end with--5~-|
C:------------------------------------------------|

F:--10----10--------------------------------------|
C:---8--8----8----8-------------------------------|
G:------------------------------------------------|
C:------------------------------------------------|

Play Part (f)
Play Part (e)
Play Part (f)
Play Part (e)
Play Part (f)
Play Part (e)
Play Part (f)

F:------------------------------------------------|
C:----------3-------------------------------------|
G:------------5-6---------------------------------|
C:---1-0-0----------------------------------------|


The End!
Comments