Ill Nino - Unreal Chords & Tabs

 

Unreal Chords & Tabs

Ill Nino Chords & Tabs

Version: 3 Type: Tab 0 ratings
1 star 2 stars 3 stars 4 stars 5 stars
comments

Unreal Tab

   
Ill Nino - Unreal - Revolution Revolucion

Tabbed by Elvisz (elvisz84@yahoo.com)
Tuning : 6 String Dropped C {Tuned Low to High (C G C F a d)}

Intro:
|-------12~~-------12~~~~-|
|-------------------------|
|-10-9-------10-9---------|	(Guitar1)
|-------------------------|
|-------------------------|
|-------------------------|

|-------------------|
|-------------------|
|-----9~~-----9~~~~-|	(Guitar2)
|-------------------|
|-8-7-----8-7-------|
|-------------------|

Pre-verse:
|--------------|
|--------------|
|--------------|
|--------------|
|-3-2-5--32-5--|
|-3-2----32----|

Verse:
|---------------|
|---------------|
|---------------|
|-0~~-3~~-2~~~~-|
|-0~~-3~~-2~~~~-|
|-0~~-3~~-2~~~~-|

Pre-Chorus:
|--------------|--------------|
|--------------|--------------|
|--------------|--------------|
|-----2-----2--|-----2--------|
|-3-2----32----|-3-2----3-0~~-|
|-3-2----32----|-3-2----3-0~~-|

Fill1:
|----------|
|----------|
|----------|
|----------|
|-33333333-|
|-33333333-|
  ........  .palm mute

Chorus:
|------------------|
|------------------|
|------------------|	(Guitar1 & Guitar2 and after that guitar2 play)
|-7777777733333333-|
|-7777777733333333-|
|-7777777733333333-|

|-------------------------|
|-------------------------|
|-10\9910\99\555/7777\555-|	(Guitar2)
|-xxxxxxxxxxxxxxxxxxxxxxx-|
|- 8\77 8\77\333/5555\333-|
|-------------------------|

Fill1:
|-------|
|-------|
|-------|	(Guitar1)
|-3~~~~-|
|-3~~~~-|
|-3~~~~-|

|------------------|
|------------------|
|-10\9910\99\5~~~~-|	(Guitar2)
|-xxxxxxxxxxxxxxxx-|
|- 8\77 8\77\3~~~~-|
|------------------|

Pre-verse:
|--------------|
|--------------|
|--------------|
|--------------|
|-3-2-5--32-5--|
|-3-2----32----|

Verse:
|---------------|
|---------------|
|---------------|
|-0~~-3~~-2~~~~-|
|-0~~-3~~-2~~~~-|
|-0~~-3~~-2~~~~-|
[ Tab from: http://www.guitartabs.cc/tabs/i/ill_nino/unreal_tab_ver_3.html ]
Pre-Chorus:
|--------------|--------------|
|--------------|--------------|
|--------------|--------------|
|-----2-----2--|-----2--------|
|-3-2----32----|-3-2----3-0~~-|
|-3-2----32----|-3-2----3-0~~-|

Fill1:
|----------|
|----------|
|----------|
|----------|
|-33333333-|
|-33333333-|
  ........  .palm mute

Chorus:
|------------------|
|------------------|
|------------------|	(Guitar1 & Guitar2 and after that guitar2 play)
|-7777777733333333-|
|-7777777733333333-|
|-7777777733333333-|

|-------------------------|
|-------------------------|
|-10\9910\99\555/7777\555-|	(Guitar2)
|-xxxxxxxxxxxxxxxxxxxxxxx-|
|- 8\77 8\77\333/5555\333-|
|-------------------------|

Fill1:
|---------------|
|---------------|
|---------------|	(Guitar1)
|-777777773~~~~-|
|-777777773~~~~-|
|-777777773~~~~-|

|------------------|
|------------------|
|-10\9910\99\5~~~~-|	(Guitar2)
|-xxxxxxxxxxxxxxxx-|
|- 8\77 8\77\3~~~~-|
|------------------|

Bridge:
|-------|
|-------|
|-------|	(Guitar1)
|-2~~~~-|
|-2~~~~-|
|-2~~~~-|

|---------------------------------------------|
|---------------------------------------------|
|---------------------------------------------|	(Guitar2)
|-------16~~-------14~~-------12~~-------14~~-|
|----14---------12---------10---------12------|
|-14---------12---------10---------12---------|

Fill2:
|----------|
|----------|
|----------|
|-22222222-|
|-22222222-|
|-22222222-|
  ........   .palm mute

Chorus:
|------------------|
|------------------|
|------------------|	(Guitar1 & Guitar2 and after that guitar2 play)
|-7777777733333333-|
|-7777777733333333-|
|-7777777733333333-|

|-------------------------|
|-------------------------|
|-10\9910\99\555/7777\555-|	(Guitar2)
|-xxxxxxxxxxxxxxxxxxxxxxx-|
|- 8\77 8\77\333/5555\333-|
|-------------------------|

Outro:
|-------------|
|-------------|
|-------------|	(Guitar1)
|-7777773~~~~-|
|-7777773~~~~-|
|-7777773~~~~-|

|------------------|
|------------------|
|-10\9910\99\5~~~~-|	(Guitar2)
|-xxxxxxxxxxxxxxxx-|
|- 8\77 8\77\3~~~~-|
|------------------|
Comments