Ill Nino - Unreal Chords & Tabs

 

Unreal Chords & Tabs

Ill Nino Chords & Tabs

Version: 2 Type: Tab 0 ratings
1 star 2 stars 3 stars 4 stars 5 stars
comments

Unreal Tab

!!! Belgium !!!Here is the tab for "Unreal" by Ill Nino, it's kinda complete,
tune your guitar to Drop C ( low to high : C G C F A d )

Main riff ( both guitars ):
D------------------
A------------------
F------------------
C--3-2-0-3-2-0-----
G--3-2-0-3-2-0-----
C--3-2-0-3-2-0----- repeat

Verse ( both guitars ):
D----------------
A----------------
F----------------
C--0-3-2~--------
G--0-3-2~--------
C--0-3-2~-------- repeat

Pre-chorus:
D----------------
A----------------
F----------------
C--3-2-0-3-2-0---
G--3-2-0-3-2-0---
C--3-2-0-3-2-0--- rhythm guitar plays this a couple of times
then second guitar comes in and they both play this:
[ Tab from: http://www.guitartabs.cc/tabs/i/ill_nino/unreal_tab_ver_2.html ]
D-----------------------
A-----------------------
F-----------------------
C--0-0-0-0-0-0-0-0------
G--0-0-0-0-0-0-0-0------
C--0-0-0-0-0-0-0-0------
   . . . . . . . . palm muted

Chorus ( both guitars ):
D---------------------------------
A---------------------------------
F---------------------------------
C--7-7-7-7-7-7--3-3-3-3-3-3-3-3---
G--7-7-7-7-7-7--3-3-3-3-3-3-3-3---
C--7-7-7-7-7-7--3-3-3-3-3-3-3-3---

Bridge:
D-------------
A-------------
F-------------
C--2~---------
G--2~---------
C--2~--------- let it ring a couple of times

Final chorus:
D---------------------
A---------------------
F---------------------
C--7-7-7-7-7-7--3~----
G--7-7-7-7-7-7--3~----
C--7-7-7-7-7-7--3~----

That's it, "Unreal" by Ill Nino
For Comments e-mail me arno.bogaerts@pandora.be
Comments