Ill Nino - Unreal Remix Chords & Tabs

 

Unreal Remix Chords & Tabs

Ill Nino Chords & Tabs

Version: 1 Type: Tab 0 ratings
1 star 2 stars 3 stars 4 stars 5 stars
comments

Unreal Remix Tab

   
Ill Nino - Unreal(Reborn Mix)
Submitted By: Derek Donaldson
EMail: zero_hour_666@msn.com


C Tuning

x = mute

Drum and Vocal Intro

Killer Riff #1
--------------------
--------------------
--------------------
--3--2------3-2-----
--3--2--5---3-2--5--
--3--2------3-2-----

Verse
------------------------------------------------
------------------------------------------------
------------------------------------------------
--0-3-2--------0-3-2--------0-3-2--------0-3-2--
--0-3-2--------0-3-2--------0-3-2--------0-3-2--
--0-3-2--------0-3-2--------0-3-2--------0-3-2--
[ Tab from: http://www.guitartabs.cc/tabs/i/ill_nino/unreal_remix_tab.html ]
Pre-Chorus
----------------------------------|-------------------
----------------------------------|-------------------
----------------------------------|-------------------
--------2-------2---------2--3-0--|--2-2-2-2-2-2-2-2--
-----------------------------3-0--|--2-2-2-2-2-2-2-2--
--3--2------3-2-----3--2-----3-0--|--2-2-2-2-2-2-2-2--

Chorus (Gtr 1)
-----------------------------------
-----------------------------------
-----------------------------------
--7-7-7-7-7-7-3-3-3-3-3-3-3-3-3-3--
--7-7-7-7-7-7-3-3-3-3-3-3-3-3-3-3--
--7-7-7-7-7-7-3-3-3-3-3-3-3-3-3-3--

Chorus (Gtr 2)
------------------------------------------------
------------------------------------------------
--10-9-9--10-9-9---5-5-5-5-7-7-7-7-7-5-5-5-5-5--
---x-x-x---x-x-x---x-x-x-x-x-x-x-x-x-x-x-x-x-x--
---8-7-7---8-7-7---3-3-3-3-5-5-5-5-5-3-3-3-3-3--
------------------------------------------------

Interlude
-----
-----
-----
--2-- x4
--2--
--2--

Outro
------------------
------------------
------------------
--7-7-7-7-7-7--3--
--7-7-7-7-7-7--3--
--7-7-7-7-7-7--3--
Comments