Ill Nino - Under The Sun Chords & Tabs

 

Under The Sun Chords & Tabs

Ill Nino Chords & Tabs

Version: 1 Type: Tab 0 ratings
1 star 2 stars 3 stars 4 stars 5 stars
comments

Under The Sun Tab

   
Ill Nino - Under The Sun Feat. Soulfly(Black Sabbath Cover)
Submitted By: Derek Donaldson
EMail: zero_hour_666@msn.com


This is Under the sun feat. Soulfly and its a cover of black sabbath cover

Black Sabbath - Under the Sun (Every Day Comes and Goes)

From Black Sabbath\'s \"Volume 4\" Album, Released September, 1972 

Tuning Info:  Tune to C#, 130 beats/min., 4/4 count (except where noted)

NOTE:  Lyrics may not match written music or may be incorrect.
       Multiple guitar parts may not align due to space constraints.

88 beats/min.
[f]
 E  E E A G#  D  C#   C      B\\(E)   E  E E  A G#  D  C#  C     B\\(E)
--------------------------------------------------------------------------
--------------------------------------------------------------------------
--------------------------------------------------------------------------
--------------------------------------------------------------------------
-2--2-2--9-8---12-11--10-(x)-9\\(2)---2---2-2--9-8---12-11--10-(x)-9\\(2)---
-0--0-0--7-6---10--9---8-(x)-7\\(0)---0---0-0--7-6---10--9---8-(x)-7\\(0)---

 E  E E A G#  D  C#   C      B\\(E)
-------------------------------------
-------------------------------------
-------------------------------------
-------------------------------------
-2--2-2--9-8---12-11--10-(x)-9\\(2)---
-0--0-0--7-6---10--9---8-(x)-7\\(0)---

130 beats/min.
--------------------------------------------------
--------------------------------------------------
--------------------------------------------------
---2--2-4--4-5p4p2-4p2---2--2-4--4-5p4p22-4p2-----
-x---------------------x--------------------------
-0---------------------0--------------------------
{................slight pm..................}

--------------------------------------------------
--------------------------------------------------
--------------------------------------------------
---2--2-4--4-5p4p2-4p2---2--2-4--4-5p4p22-4p2-----
-x---------------------x--------------------------
-0---------------------0--------------------------
{................slight pm..................}

--------------------------------------------------
--------------------------------------------------
--------------------------------------------------
---2--2-4--4-5p4p2-4p2---2--2-4--4-5p4p22-4p2-----
-x---------------------x--------------------------
-0---------------------0--------------------------
{................slight pm..................}
Well I don\'t want no Jesus freak to tell me what it\'s all about

--------------------------------------------------
--------------------------------------------------
--------------------------------------------------
---2--2-4--4-5p4p2-4p2---2--2-4--4-5p4p22-4p2-----
-x---------------------x--------------------------
-0---------------------0--------------------------
{................slight pm..................}

--------------------------------------------------
--------------------------------------------------
--------------------------------------------------
---2--2-4--4-5p4p2-4p2---2--2-4--4-5p4p22-4p2-----
-x---------------------x--------------------------
-0---------------------0--------------------------
{................slight pm..................}
No black magician telling me to cut my soul out

--------------------------------------------------
--------------------------------------------------
--------------------------------------------------
---2--2-4--4-5p4p2-4p2---2--2-4--4-5p4p22-4p2-----
-x---------------------x--------------------------
-0---------------------0--------------------------
{................slight pm..................}

--------------------------------------------------
--------------------------------------------------
--------------------------------------------------
---2--2-4--4-5p4p2-4p2---2--2-4--4-5p4p22-4p2-----
-x---------------------x--------------------------
-0---------------------0--------------------------
{................slight pm..................}
Don\'t believe in violence, I don\'t even believe in peace

--------------------------------------------------
--------------------------------------------------
--------------------------------------------------
---2--2-4--4-5p4p2-4p2---2--2-4--4-5p4p22-4p2-----
-x---------------------x--------------------------
-0---------------------0--------------------------
{................slight pm..................}

--------------------------------------------------
--------------------------------------------------
--------------------------------------------------
---2--2-4--4-5p4p2-4p2---2--2-4--4-5p4p22-4p2-----
-x---------------------x--------------------------
-0---------------------0--------------------------
{................slight pm..................}
I\'ve opened the door now my mind\'s been released.

--------------------------------------------------
--------------------------------------------------
--------------------------------------------------
---2--2-4--4-5p4p2-4p2---2--2-4--4-5p4p22-4p2-----
-x---------------------x--------------------------
-0---------------------0--------------------------
{................slight pm..................}

----------------------------------------------------------------------------
-----------------------------------------------------9-10p9-12-12~~~--------
------------------------------------9h100p9--9--10p9------------------------
--------------------9-9h10--9-11-12-----------------------------------------
------9-10p9-9-10h12------12------------------------------------------------
-10h12---------------------------------------------------------------12\\(9)-

--------------------------------------------------
--------------------------------------------------
--------------------------------------------------
---2--2-4--4-5p4p2-4p2---2--2-4--4-5p4p22-4p2-----
-x---------------------x--------------------------
-0---------------------0--------------------------
{................slight pm..................}

--------------------------------------------------
--------------------------------------------------
--------------------------------------------------
---2--2-4--4-5p4p2-4p2---2--2-4--4-5p4p22-4p2-----
-x---------------------x--------------------------
-0---------------------0--------------------------
{................slight pm..................}

--------------------------------------------------
--------------------------------------------------
--------------------------------------------------
---2--2-4--4-5p4p2-4p2---2--2-4--4-5p4p22-4p2-----
-x---------------------x--------------------------
-0---------------------0--------------------------
{................slight pm..................}
 Well, I don\'t want no preacher tellin\' me \'bout the God 

--------------------------------------------------
--------------------------------------------------
--------------------------------------------------
---2--2-4--4-5p4p2-4p2---2--2-4--4-5p4p22-4p2-----
-x---------------------x--------------------------
-0---------------------0--------------------------
{................slight pm..................}
 in the sky                           No I don\'t

--------------------------------------------------
--------------------------------------------------
--------------------------------------------------
---2--2-4--4-5p4p2-4p2---2--2-4--4-5p4p22-4p2-----
-x---------------------x--------------------------
-0---------------------0--------------------------
{................slight pm..................}
want no one to tell me where I\'m gonna go 

--------------------------------------------------
--------------------------------------------------
--------------------------------------------------
---2--2-4--4-5p4p2-4p2---2--2-4--4-5p4p22-4p2-----
-x---------------------x--------------------------
-0---------------------0--------------------------
{................slight pm..................}
 when I die                           I wanna

--------------------------------------------------
--------------------------------------------------
--------------------------------------------------
---2--2-4--4-5p4p2-4p2---2--2-4--4-5p4p22-4p2-----
-x---------------------x--------------------------
-0---------------------0--------------------------
{................slight pm..................}
 live my life without people telling me what to do

--------------------------------------------------
--------------------------------------------------
--------------------------------------------------
---2--2-4--4-5p4p2-4p2---2--2-4--4-5p4p22-4p2-----
-x---------------------x--------------------------
-0---------------------0--------------------------
{................slight pm..................}
                                         I just

--------------------------------------------------
--------------------------------------------------
--------------------------------------------------
---2--2-4--4-5p4p2-4p2---2--2-4--4-5p4p22-4p2-----
-x---------------------x--------------------------
-0---------------------0--------------------------
{................slight pm..................}
 believe in myself \'cause no one else is true

--------------------------------------------------
--------------------------------------------------
--------------------------------------------------
---2--2-4--4-5p4p2-4p2---2--2-4--4-5p4p22-4p2-----
-x---------------------x--------------------------
-0---------------------0--------------------------
{................slight pm..................}

----------------------------------------------------------------------------
-----------------------------------------------------9-10p9-12-12~~~\\(9)----
------------------------------------9h100p9--9--10p9------------------------
--------------------9-9h10--9-11-12-----------------------------------------
------9-10p9-9-10h12------12------------------------------------------------
-10h12----------------------------------------------------------------------

BRIDGE

138 beats/min.

--------------------------------------------------------------------------
--------------------------------------------------------------------------
--------------------------------------------------------------------------
--------------------------------------------------------------------------
--------------------------------------------------------------------------
-5~--5-5--5~--3-3--5~--5-5--5~--3-3--5~---5-5--5~--3-3--5~--5-5--5~--3-3--

 A  A A  A  G G  A  A A  A  G G  A  A A  A  G G  A  A A  A G G
------------------------------------------------------------------
------------------------------------------------------------------
------------------------------------------------------------------
------------------------------------------------------------------
-7--7-7--7--5-5--7--7-7--7--5-5--7--7-7---7--5-5--7--7-7--7--5-5--
-5--5-5--5--3-3--5--5-5--5--3-3--5--5-5---5--3-3--5--5-5--5--3-3--
 Every day just comes and goes, life is one long over dose
 People drive to ruination I can see through their frustration

 A  A A  A  G G  A  A A  A  G G  A
------------------------------------
------------------------------------
------------------------------------
------------------------------------
-7--7-7--7--5-5--7--7-7--7--5-5--7--
-5--5-5--5--3-3--5--5-5--5--3-3--5--

Drums

 B  B B  B  A A  B  B B  B  A A  B  B B  B  A A  B  B B  B  A A
------------------------------------------------------------------
------------------------------------------------------------------
------------------------------------------------------------------
------------------------------------------------------------------
-9--9-9--9--7-7--9--9-9--9--7-7--9--9-9---9--7-7--9--9-9--9--7-7--
-7--7-7--7--5-5--7--7-7--7--5-5--7--7-7---7--5-5--7--7-7--7--5-5--

 B  B B  B  A A  B  B B  B  A A  B  B B  B  A A  B  B B  B  A A
------------------------------------------------------------------
------------------------------------------------------------------
------------------------------------------------------------------
------------------------------------------------------------------
-9--9-9--9--7-7--9--9-9--9--7-7--9--9-9---9--7-7--9--9-9--9--7-7--
-7--7-7--7--5-5--7--7-7--7--5-5--7--7-7---7--5-5--7--7-7--7--5-5--
 People hiding their real faces, each one running their rat races
 Behind each flower there grows a weed in their world of make believe

 B  B B  B  A A  B  B B  B  A A  B 
------------------------------------
------------------------------------
------------------------------------
------------------------------------
-9--9-9--9--7-7--9--9-9--9--7-7--9--
-7--7-7--7--5-5--7--7-7--7--5-5--7--

Drums

LEAD

------------------------------------------------------------------------------------
-------------------------12^(14)-12-9-122p9-----------------------------------------
-----------------------9-------------------9-11-11^(13)-11-9-11p9----------------9--
-----------------9h7/11------------------------------------------11-9-9-11p9-9h11---
----7h9-9p7---9h7-----------------------------------------------------------9-------
-7h9-------9-7----------------------------------------------------------------------
(Guitar 1)

------------------------------------
--------------------------------10--
-11^(13)-11-9-11p9----9-10-10h12----
------------------11-9--------------
------------------------------------
------------------------------------
(Guitar 1)

 C#  C# C#  C#  B B  C#  C# C#  C#  B B   C#  C# C#  C#  B B   C#  C# C#  C#  B B
------------------------------------------------------------------------------------
------------------------------------------------------------------------------------
------------------------------------------------------------------------------------
------------------------------------------------------------------------------------
-11--11-11--11--9-9--11--11-11--11--9-9----11--11-11--11--9-9---11--11-11--11--9-9--
--9---9--9---9--7-7---9---9--9---9--7-7-----9---9--9---9--7-7----9---9--9---9--7-7--
(Guitar 2)

------------------------------------------------------------------------------
------10-13^(15)-13-10-13p10--------------------------------------------------
-10h12----------------------12-10-12p10---12-10-12p10--12p10--12~-10-12p10----
---------------------------------------112-----------12-----12------------12--
------------------------------------------------------------------------------
------------------------------------------------------------------------------
(Guitar 1)

--------------------------------------------------------------------------------
--------------------------------------------------------------------------------
-12p10--14p10--12p10-----------10h12-12--12p10----12p10--14p10--12p10-----------
------12-----12-----------10h12----------------12------12-----12-----12p10---12-
---------------------10h12-------------------------------------------------12---
--------------------------------------------------------------------------------
(Guitar 1)

  D   D D   D  C  C    D   D D   D  C  C     D   D D   D  C  C     D   D D   D  C  C
----------------------------------------------------------------------------------------
----------------------------------------------------------------------------------------
----------------------------------------------------------------------------------------
----------------------------------------------------------------------------------------
-12--12-12--12-10-10---12--12-12--12-10--10---12--12-12--12-10-10---12--12-12--12-10-10-
-10--10-10--10--8--8---10--10-10--10--8---8---10--10-10--10--8--8---10--10-10--10--8--8-
(Guitar 2)

-----------------------------------------------------------------------------------
-10--10-10----12--12-12-/16--16-\\(7)-------10--10-10----12--12-12-/16--16-\\(7)-----
-12^(14-14)---14^(16-16)/18^(20)\\(9^11)----12^(14-14)---14^(16-16)/18^(20)\\(9^11)--
-----------------------------------------------------------------------------------
-----------------------------------------------------------------------------------
-----------------------------------------------------------------------------------
(Guitar 1)

-----------------------------------------------------------------------------------
-10--10-10----12--12-12-/16--16-\\(7)-------10--10-10----12--12-12-/16--16-\\(7)-----
-12^(14-14)---14^(16-16)/18^(20)\\(9^11)----12^(14-14)---14^(16-16)/18^(20)\\(9^11)--
-----------------------------------------------------------------------------------
-----------------------------------------------------------------------------------
-----------------------------------------------------------------------------------
(Guitar 1)

  D   D D   D  C  C    D   D D   D  C  C     D   D D   D  C  C     D   D D   D  C  C
----------------------------------------------------------------------------------------
----------------------------------------------------------------------------------------
----------------------------------------------------------------------------------------
----------------------------------------------------------------------------------------
-12--12-12--12-10-10---12--12-12--12-10--10---12--12-12--12-10-10---12--12-12--12-10-10-
-10--10-10--10--8--8---10--10-10--10--8---8---10--10-10--10--8--8---10--10-10--10--8--8-
(Guitar 2)

130 beats/min.

--------------------------------------------------
--------------------------------------------------
--------------------------------------------------
---2--2-4--4-5p4p2-4p2---2--2-4--4-5p4p22-4p2-----
-x---------------------x--------------------------
-0---------------------0--------------------------
{................slight pm..................}

--------------------------------------------------
--------------------------------------------------
--------------------------------------------------
---2--2-4--4-5p4p2-4p2---2--2-4--4-5p4p22-4p2-----
-x---------------------x--------------------------
-0---------------------0--------------------------
{................slight pm..................}

--------------------------------------------------
--------------------------------------------------
--------------------------------------------------
---2--2-4--4-5p4p2-4p2---2--2-4--4-5p4p22-4p2-----
-x---------------------x--------------------------
-0---------------------0--------------------------
{................slight pm..................}
 So believe what I tell you, it\'s the only way you\'ll find in the end

--------------------------------------------------
--------------------------------------------------
--------------------------------------------------
---2--2-4--4-5p4p2-4p2---2--2-4--4-5p4p22-4p2-----
-x---------------------x--------------------------
-0---------------------0--------------------------
{................slight pm..................}

--------------------------------------------------
--------------------------------------------------
--------------------------------------------------
---2--2-4--4-5p4p2-4p2---2--2-4--4-5p4p22-4p2-----
-x---------------------x--------------------------
-0---------------------0--------------------------
{................slight pm..................}
Just believe in yourself, you know you really shouldn\'t have to pretend
[ Tab from: http://www.guitartabs.cc/tabs/i/ill_nino/under_the_sun_tab.html ]
--------------------------------------------------
--------------------------------------------------
--------------------------------------------------
---2--2-4--4-5p4p2-4p2---2--2-4--4-5p4p22-4p2-----
-x---------------------x--------------------------
-0---------------------0--------------------------
{................slight pm..................}

--------------------------------------------------
--------------------------------------------------
--------------------------------------------------
---2--2-4--4-5p4p2-4p2---2--2-4--4-5p4p22-4p2-----
-x---------------------x--------------------------
-0---------------------0--------------------------
{................slight pm..................}
 Don\'t let those empty people try and interfere with your mind

--------------------------------------------------
--------------------------------------------------
--------------------------------------------------
---2--2-4--4-5p4p2-4p2---2--2-4--4-5p4p22-4p2-----
-x---------------------x--------------------------
-0---------------------0--------------------------
{................slight pm..................}

--------------------------------------------------
--------------------------------------------------
--------------------------------------------------
---2--2-4--4-5p4p2-4p2---2--2-4--4-5p4p22-4p2-----
-x---------------------x--------------------------
-0---------------------0--------------------------
{................slight pm..................}
 Just live your life and leave them all behind.

----------------------------------------------------------------------
-----------------------------------------------------9-10p9-12-12~~~--
------------------------------------9h100p9--9--10p9------------------
--------------------9-9h10--9-11-12-----------------------------------
------9-10p9-9-10h12------12------------------------------------------
-10h12----------------------------------------------------------------

Black Sabbath - Under the Sun (Every Day Comes and Goes), Part 2

From Black Sabbath\'s \"Volume 4\" Album, Released September, 1972 

Tuning Info:  Tune to C#, 112 beats/min., 4/4 count (except where noted)

NOTE:  Lyrics may not match written music or may be incorrect.
       Multiple guitar parts may not align due to space constraints.

Special Note: I decided to try and write the 2 Guitar Leads seperate, rather than
              each stanza together with Guitar 3.  I put the CD times at the start
              and the end of the leads.  I hope this works for ya!

Cymbal
3:57

------------------------------------------------------------------------------
------------------------------------------------------------------------------
-4------------------4------------------44-------------------------------------
--4h5p4h5p4----------4h5p4h5p4-----------4h5p4h5p4----------------------------
-----------7--7--7-7----------5--5--5-5------------3--3--3--3-5-3--2--2--2----
------------------------------------------------------------------------------

------------------------------------------------------------------------------------
------------------------------------------------------------------------------------
--------------------------------------------4~--4/7--7/9-9~-7h9-9^(11-11-11s`9\\6)---
------------------------------------4h5hh7------------------------------------------
--5~~~--5h7-------------------5~-5h7------------------------------------------------
------------------------------------------------------------------------------------
(Guitar 1 & 2)

------------------------------------------------------------------------------
------------------------------------------------------------------------------
-4------------------4------------------44-------------------------------------
--4h5p4h5p4----------4h5p4h5p4-----------4h5p4h5p4----------------------------
-----------7--7--7-7----------5--5--5-5------------3--3--3--3-5-3--2--2--2----
------------------------------------------------------------------------------
(Guitar 3)

------------------------------------------------7h10-10^(12-12-12s`10)-7-10p7----
------------------------------------------------------------------------------8~-
-7h9-9^(11-11-11s`9\\6)--7h9-9^(11-11-11ss`9\\6)-----------------------------------
---------------------------------------------------------------------------------
---------------------------------------------------------------------------------
---------------------------------------------------------------------------------
(Guitar 1 & 2)

------------------------------------------------------------------------------
------------------------------------------------------------------------------
-4------------------4------------------44-------------------------------------
--4h5p4h5p4----------4h5p4h5p4-----------4h5p4h5p4----------------------------
-----------7--7--7-7----------5--5--5-5------------3--3--3--3-5-3--2--2--2----
------------------------------------------------------------------------------
(Guitar 3)

4:24
------------------------12----------12-----------12--------12---------12-15p12--12-
----------------------12----------12-----------12--------12---------12--------15---
-14-12--14-12--14^(16)----14^(16)-----144^(16)-----14^(16)---14^(16)---------------
-----------------------------------------------------------------------------------
-----------------------------------------------------------------------------------
-----------------------------------------------------------------------------------
(Guitar 1 {Right Channel})

------------------------------------------------------------------------------
------------------------------------------------------------------------------
-4------------------4------------------44-------------------------------------
--4h5p4h5p4----------4h5p4h5p4-----------4h5p4h5p4----------------------------
-----------7--7--7-7----------5--5--5-5------------3--3--3--3-5-3--2--2--2----
------------------------------------------------------------------------------
(Guitar 3)

--------10-12p10-15^(17)-12-15^(17)-15p112\\10-12-12~~--12-15p12------------------------
-11^(13)-------------------------------------------------------15-12-15p12\\10-10-12-10-
---------------------------------------------------------------------------------------
---------------------------------------------------------------------------------------
---------------------------------------------------------------------------------------
---------------------------------------------------------------------------------------
(Guitar 1 {Right Channel})

------------------------------------------------------------------------------
------------------------------------------------------------------------------
-4------------------4------------------44-------------------------------------
--4h5p4h5p4----------4h5p4h5p4-----------4h5p4h5p4----------------------------
-----------7--7--7-7----------5--5--5-5------------3--3--3--3-5-3--2--2--2----
------------------------------------------------------------------------------
(Guitar 3)

--------10------------------------------------------------------------------12--
-12^(14)--12p10--10-12-10--10\\8-10p8-8-110p8-----------8-10p8-8-10p8-8-10/12----
---------------12--------12---------9-------9-7-9p7-7h9------9------9-----------
---------------------------------------------------9----------------------------
--------------------------------------------------------------------------------
--------------------------------------------------------------------------------
(Guitar 1 {Right Channel})

------------------------------------------------------------------------------
------------------------------------------------------------------------------
-4------------------4------------------44-------------------------------------
--4h5p4h5p4----------4h5p4h5p4-----------4h5p4h5p4----------------------------
-----------7--7--7-7----------5--5--5-5------------3--3--3--3-5-3--2--2--2----
------------------------------------------------------------------------------
(Guitar 3)

-12-15^(17)-15p12--12-12-15p12-------------------------12-------------------------------
-----------------15-----------15p12----------------------15p12-----------------------12-
-----------------------------------14-122-12-12/14^(16)-------14-12-14p12--12h14^(16)---
-------------------------------------------------------------------------14-------------
----------------------------------------------------------------------------------------
----------------------------------------------------------------------------------------
(Guitar 1 {Right Channel})

------------------------------------------------------------------------------
------------------------------------------------------------------------------
-4------------------4------------------44-------------------------------------
--4h5p4h5p4----------4h5p4h5p4-----------4h5p4h5p4----------------------------
-----------7--7--7-7----------5--5--5-5------------3--3--3--3-5-3--2--2--2----
------------------------------------------------------------------------------
(Guitar 3)                                        4:56 Lead Ends here

----------------------------------12--------------------------------10^(12)---
--------------------------------12--15^((17)-15-12-15p12----------------------
-14p12--12------------12h14^(16)------------------------14-12-14^(16)---------
------14--14p12--12h14--------------------------------------------------------
---------------14-------------------------------------------------------------
------------------------------------------------------------------------------
(Guitar 1 {Right Channel})

------------------------------------------------15-17--17-17\\15-15-------------------
-15^(17)-15-12-15p12-------------12-12-115/17-17------------------17-15-15-15--------
--------------------14-12-14p12----------------------------------------------16\\14---
-------------------------------14----------------------------------------------------
-------------------------------------------------------------------------------------
-------------------------------------------------------------------------------------
(Guitar 1 {Right Channel})

--------------12-------12---------------------------------------------------------------
----------------15^(17)--15p12--12-15p122-----------------------------------------------
-12-12-14^(16)----------------14---------14-14-14p12--12------------------12h14p12--12--
----------------------------------------------------14--14-12-14p12--12-14--------14----
-------------------------------------------------------------------14-------------------
----------------------------------------------------------------------------------------
(Guitar 1 {Right Channel})

-------------------------
-------------------------
-14~~p12-----------------
--------14-14~~----------
-------------------------
-------------------------
(Guitar 1 {Right Channel}) 4:56


4:24
------------------------12----------12-----------12--------12---------12-15p12--12-
----------------------12----------12-----------12--------12---------12--------15---
-14-12--14-12--14^(16)----14^(16)-----144^(16)-----14^(16)---14^(16)---------------
-----------------------------------------------------------------------------------
-----------------------------------------------------------------------------------
-----------------------------------------------------------------------------------
(Guitar 2 {Left Channel})

------------------------------------------------------------------------------
------------------------------------------------------------------------------
-4------------------4------------------44-------------------------------------
--4h5p4h5p4----------4h5p4h5p4-----------4h5p4h5p4----------------------------
-----------7--7--7-7----------5--5--5-5------------3--3--3--3-5-3--2--2--2----
------------------------------------------------------------------------------
(Guitar 3)

-15^(17)-15-12h15p12---12-12~-15p12--12-------------------------12----------------
--------------------15-------------15--115p12--12-------------12--15p12--12-------
---------------------------------------------14--14p12-14^(16)---------14--14-12--
----------------------------------------------------------------------------------
----------------------------------------------------------------------------------
----------------------------------------------------------------------------------
(Guitar 2 {Left Channel})

------------------------------------------------------------------------------
------------------------------------------------------------------------------
-4------------------4------------------44-------------------------------------
--4h5p4h5p4----------4h5p4h5p4-----------4h5p4h5p4----------------------------
-----------7--7--7-7----------5--5--5-5------------3--3--3--3-5-3--2--2--2----
------------------------------------------------------------------------------
(Guitar 3)

-----------------------------------------------------------------------------------
-----------------------------------------------------------------------15-15p12----
-14p12--14p12h14~-----------------------------------------------14^(16)--------14--
-----------------14p12-14p12-----------112-----12-----12-14p12---------------------
----------------------------14p12-12h14---12h14--12h14--------14-------------------
-----------------------------------------------------------------------------------
(Guitar 2 {Left Channel})

------------------------------------------------------------------------------
------------------------------------------------------------------------------
-4------------------4------------------44-------------------------------------
--4h5p4h5p4----------4h5p4h5p4-----------4h5p4h5p4----------------------------
-----------7--7--7-7----------5--5--5-5------------3--3--3--3-5-3--2--2--2----
------------------------------------------------------------------------------
(Guitar 3)

--------------12-(12h15p12 tr~~~)-12h15pp12~-15-12-15h17h18p17p15\\12-15^(17)-12-15--
--------12-15~----------------------------------------------------------------------
-14^(16)----------------------------------------------------------------------------
------------------------------------------------------------------------------------
------------------------------------------------------------------------------------
------------------------------------------------------------------------------------
(Guitar 2 {Left Channel})

------------------------------------------------------------------------------
------------------------------------------------------------------------------
-4------------------4------------------44-------------------------------------
--4h5p4h5p4----------4h5p4h5p4-----------4h5p4h5p4----------------------------
-----------7--7--7-7----------5--5--5-5------------3--3--3--3-5-3--2--2--2----
------------------------------------------------------------------------------
(Guitar 3)                                         4:56 Lead ends Here

-15p12-15h17-18-17p15\\12-15p12--12------------------------------------------------------
------------------------------15--15p12---12--------------------------------------------
---------------------------------------114--14p12--12-------------------12-14p12--12~---
-------------------------------------------------14--14p12--12-----12h14--------14------
----------------------------------------------------------14--12h14---------------------
----------------------------------------------------------------------------------------
(Guitar 2 {Left Channel})

-----------------------------------------------------12--------------------------------
--------12-15-15^(17)-15-12-15p12--12--------------12--15^(17)-12-15-15p12-------------
-14^(16)-------------------------14--14pp12-14^(16)-----------------------14p12-12-12~-
------------------------------------------------------------------------------14-------
---------------------------------------------------------------------------------------
---------------------------------------------------------------------------------------
(Guitar 2 {Left Channel})

------------------------------------------------------------------------------
------------------------------------------------------------------------------
-14-12------------12-----------12-14-14~~-14p12-14~-14p12--12-14-12h14p12-14--
------14p12--12-12--14-12-14h12--------------------------14-------------------
-----------14-----------------------------------------------------------------
------------------------------------------------------------------------------
(Guitar 2 {Left Channel})

------------------------------------------------------------------------------
------------------------------------------------------------------------------
-4------------------4------------------44-------------------------------------
--4h5p4h5p4----------4h5p4h5p4-----------4h5p4h5p4----------------------------
-----------7--7--7-7----------5--5--5-5------------3--3--3--3-5-3--2--2--2----
------------------------------------------------------------------------------

------------------------------------------------------------------------------
------------------------------------------------------------------------------
-4------------------4------------------44-------------------------------------
--4h5p4h5p4----------4h5p4h5p4-----------4h5p4h5p4----------------------------
-----------7--7--7-7----------5--5--5-5------------3--3--3--3-5-3--2--2--2----
------------------------------------------------------------------------------

---------------------------------------------------------------------------------------
---------------------------------------------------------------------------------------
--------------------------------------------4~--4/7--7/9-9~-7h9-9^(11-11-11s`9\\6)-7h9--
------------------------------------4h5hh7---------------------------------------------
--5~~~--5h7-------------------5~-5h7---------------------------------------------------
---------------------------------------------------------------------------------------
(Guitar 1 & 2)

 E   E  E   E  E  E    D   D  D   D  D  D    C   C  C   C  C  C
-------------------------------------------------------------------
-------------------------------------------------------------------
-------------------------------------------------------------------
-------------------------------------------------------------------
-10--10-10--10-10-10---12--12-12--12-12--12---10--10-10--10-10-10--
-12--12-12--12-12-12---10--10-10--10-10--10----8---8--8---8--8--8--
(Guitar 1)

------------------------------------------------------------------------------
------------------------------------------------------------------------------
-4------------------4------------------44-------------------------------------
--4h5p4h5p4----------4h5p4h5p4-----------4h5p4h5p4----------------------------
-----------7--7--7-7----------5--5--5-5------------3--3--3--3-5-3--2--2--2----
------------------------------------------------------------------------------
(Guitar 2)

------------------------------------
------------------------------------
------------------------------------
------------------------------------
--7--5----------(5/)-7--5-----------
-------5^(6)--3-----------5^(6)-3/--
(Guitar 1)

92 beats/min.

  E   E   E   E     D   D   D   D     C   C   C   C
-------------------------------------------------------
-------------------------------------------------------
-------------------------------------------------------
-------------------------------------------------------
-10--10--10--10----12--12--12--12----10---10--10--10---
-12--12--12--12----10--10--10--10-----8----8---8---8---
(Guitar 1 & 2)

------------------------------------
------------------------------------
------------------------------------
------------------------------------
--7--5----------(5/)-7--5-----------
-------5^(6)--3-----------5^(6)-3/--
(Guitar 1 & 2)

83 beats/min.                         76 beats/min.

  E   E   E   E     D   D   D   D     C   C   C   C
-------------------------------------------------------
-------------------------------------------------------
-------------------------------------------------------
-------------------------------------------------------
-10--10--10--10----12--12--12--12----10---10--10--10---
-12--12--12--12----10--10--10--10-----8----8---8---8---
(Guitar 1 & 2)
                                   E
--------------------------------------
--------------------------------------
--------------------------------------
--------------------------------------
--7--5----------(5/)-7--5----------2--
-------5^(6)--3-----------5^(6)-3--0--
(Guitar 1 & 2)

Email me any comments / questions and enjoi :D
Comments