Ill Nino - Turns To Gray Chords & Tabs

 

Turns To Gray Chords & Tabs

Ill Nino Chords & Tabs

Version: 1 Type: Tab 0 ratings
1 star 2 stars 3 stars 4 stars 5 stars
comments

Turns To Gray Tab

Ill Nino - Turns To Gray - One Nation Underground

Tabbed by Elvisz(elvisz@kornkids.com)
                (elvisz84@yahoo.com)

Tunning: CGCfad

Intro1:
|-----------------------------|------------------------------|
|-----------------------------|--------------------11--------|
|----8---7-------8---7----5/7-|----8---7-------8---xx----8\7-|	(Guitar1)
|----x---x-------x---x----xxx-|----x---x-------x--- 8----xxx-|
|----6---5-------6---5----3/5-|----6---5-------6---------6\5-|
|-00---0---000-0---0---00-----|-00---0---000-0---0----00-----|
  ..   .   ... .   .   ..       ..   .   ... .   .    ..       .palm mute

|-----------------------------|------------------------------|
|-----------------------------|------------------------------|
|-----------------------------|---------------------7--------|	(Guitar2)
|----5---4-------5---4----2/4-|----5---4-------5----8----5\4-|
|----6---5-------6---5----3/5-|----6---5-------6---------6\5-|
|-00---0---000-0---0---00-----|-00---0---000-0---0----00-----|
  ..   .   ... .   .   ..       ..   .   ... .   .    ..       .palm mute

|----------|
|----------|
|----------|	(Guitar3)
|----------|
|-00000000-|
|-00000000-|
  ........  .palm mute

Intro2:
|-------------------------------|--------------------------------|
|-------------------------------|----------------------11--------|
|------8---7-------8---7----5/7-|------8---7-------8---xx----8\7-| (Guitar1)
|------x---x-------x---x----xxx-|------x---x-------x--- 8----xxx-|
|-0000-6---5-------6---5----3/5-|-0000-6---5-------6---------6\5-|
|-0000---0---000-0---0---00-----|-0000---0---000-0---0----00-----|
  ....   .   ... .   .   ..       ....   .   ... .   .    ..      .palm mute

|-------------------------------|--------------------------------|
|-------------------------------|--------------------------------|
|-------------------------------|-----------------------7--------| (Guitar2)
|------5---4-------5---4----2/4-|------5---4-------5----8----5\4-|
|-0000-6---5-------6---5----3/5-|-0000-6---5-------6---------6\5-|
|-0000---0---000-0---0---00-----|-0000---0---000-0---0----00-----|
  ....   .   ... .   .   ..       ....   .   ... .   .    ..      .palm mute

|----------|
|----------|
|----------|	(Guitar3)
|----------|
|-00000000-|
|-00000000-|
  ........  .palm mute

Verse:
|----------|
|----------|
|----------|	(Guitar1 & Guitar2)
|----------|
|-00000000-|
|-00000000-|
  ........  .palm mute

Pre-chorus1:
|----------------------------------|
|-10101010101010101010101010101010-|
|-xxxxxxxxxxxxxxxxxxxxxxxxxxxxxxxx-|	(Guitar1)
|- 7 7 7 7 7 7 7 7 7 7 7 7 7 7 7 7-|
|----------------------------------|
|----------------------------------|

|----------------------------------|
|-11111111111111111111111111111111-|
|-xxxxxxxxxxxxxxxxxxxxxxxxxxxxxxxx-|	(Guitar1)
|- 8 8 8 8 8 8 8 8 8 8 8 8 8 8 8 8-|
|----------------------------------|
|----------------------------------|

|------------------|
|-8888888888888888-|
|-xxxxxxxxxxxxxxxx-|	(Guitar1)
|-5555555555555555-|
|------------------|
|------------------|

|----------------------------------|
|----------------------------------|
|-14141414141414141414141414141414-|	(Guitar2)
|-xxxxxxxxxxxxxxxxxxxxxxxxxxxxxxxx-|
|-12121212121212121212121212121212-|
|----------------------------------|

|----------------------------------|
|----------------------------------|
|-15151515151515151515151515151515-|	(Guitar2)
|-xxxxxxxxxxxxxxxxxxxxxxxxxxxxxxxx-|
|-13131313131313131313131313131313-|
|----------------------------------|

|----------------------------------|
|----------------------------------|
|-12121212121212121212121212121212-|	(Guitar2)
|-xxxxxxxxxxxxxxxxxxxxxxxxxxxxxxxx-|
|-10101010101010101010101010101010-|
|----------------------------------|

Pre-chorus2:
|----------------------------|
|----------------------------|
|-88------77------88------77-|	(Guitar1 & Guitar2)
|-xx------xx------xx------xx-|
|-66------55------66------55-|
|----0000----0000----0000----|
     ....    ....    ....     .palm mute

Chorus:
|-----------------------------|
|-----------------------------|
|-----------------------------|	(Guitar1)
|-5~~~5-55-5-55-1~~~1-11-1-11-|
|-5~~~5-55-5-55-1~~~1-11-1-11-|
|-5~~~5-55-5-55-1~~~1-11-1-11-|

|-------------------------------|--------------------------------|
|-------------------------------|----------------------11--------|
|------8---7-------8---7----5/7-|------8---7-------8---xx----8\7-| (Guitar1)
|------x---x-------x---x----xxx-|------x---x-------x--- 8----xxx-|
|-0000-6---5-------6---5----3/5-|-0000-6---5-------6---------6\5-|
|-0000---0---000-0---0---00-----|-0000---0---000-0---0----00-----|
  ....   .   ... .   .   ..       ....   .   ... .   .    ..      .palm mute
[ Tab from: http://www.guitartabs.cc/tabs/i/ill_nino/turns_to_gray_tab.html ]
|------------------------------------|
|------------------------------------|
|-121212101010------151515141414-----|	(Guitar2)
|-------------121212------------1515-|
|------------------------------------|
|------------------------------------|

|--------------|
|--------------|
|-20-19~~~~~~~-|	(Guitar2)
|--------------|
|--------------|
|--------------|

|----------|
|----------|
|----------|	(Guitar3)
|----------|
|-00000000-|
|-00000000-|
  ........  .palm mute

Verse:
|----------|
|----------|
|----------|	(Guitar1 & Guitar2)
|----------|
|-00000000-|
|-00000000-|
  ........  .palm mute


Pre-chorus1:
|----------------------------------|
|-10101010101010101010101010101010-|
|-xxxxxxxxxxxxxxxxxxxxxxxxxxxxxxxx-|	(Guitar1)
|- 7 7 7 7 7 7 7 7 7 7 7 7 7 7 7 7-|
|----------------------------------|
|----------------------------------|

|----------------------------------|
|-11111111111111111111111111111111-|
|-xxxxxxxxxxxxxxxxxxxxxxxxxxxxxxxx-|	(Guitar1)
|- 8 8 8 8 8 8 8 8 8 8 8 8 8 8 8 8-|
|----------------------------------|
|----------------------------------|

|------------------|
|-8888888888888888-|
|-xxxxxxxxxxxxxxxx-|	(Guitar1)
|-5555555555555555-|
|------------------|
|------------------|

|----------------------------------|
|----------------------------------|
|-14141414141414141414141414141414-|	(Guitar2)
|-xxxxxxxxxxxxxxxxxxxxxxxxxxxxxxxx-|
|-12121212121212121212121212121212-|
|----------------------------------|

|----------------------------------|
|----------------------------------|
|-15151515151515151515151515151515-|	(Guitar2)
|-xxxxxxxxxxxxxxxxxxxxxxxxxxxxxxxx-|
|-13131313131313131313131313131313-|
|----------------------------------|

|----------------------------------|
|----------------------------------|
|-12121212121212121212121212121212-|	(Guitar2)
|-xxxxxxxxxxxxxxxxxxxxxxxxxxxxxxxx-|
|-10101010101010101010101010101010-|
|----------------------------------|

Pre-chorus2:
|----------------------------|
|----------------------------|
|-88------77------88------77-|	(Guitar1 & Guitar2)
|-xx------xx------xx------xx-|
|-66------55------66------55-|
|----0000----0000----0000----|
     ....    ....    ....     .palm mute

Chorus:
|-----------------------------|
|-----------------------------|
|-----------------------------|	(Guitar1)
|-5~~~5-55-5-55-1~~~1-11-1-11-|
|-5~~~5-55-5-55-1~~~1-11-1-11-|
|-5~~~5-55-5-55-1~~~1-11-1-11-|

|-------------------------------|--------------------------------|
|-------------------------------|----------------------11--------|
|------8---7-------8---7----5/7-|------8---7-------8---xx----8\7-| (Guitar1)
|------x---x-------x---x----xxx-|------x---x-------x--- 8----xxx-|
|-0000-6---5-------6---5----3/5-|-0000-6---5-------6---------6\5-|
|-0000---0---000-0---0---00-----|-0000---0---000-0---0----00-----|
  ....   .   ... .   .   ..       ....   .   ... .   .    ..      .palm mute

|------------------------------------|
|------------------------------------|
|-121212101010------151515141414-----|	(Guitar2)
|-------------121212------------1515-|
|------------------------------------|
|------------------------------------|

|--------------|
|--------------|
|-20-19~~~~~~~-|	(Guitar2)
|--------------|
|--------------|
|--------------|

|----------|
|----------|
|----------|	(Guitar3)
|----------|
|-00000000-|
|-00000000-|
  ........  .palm mute

Fill1:
|------|
|------|
|------|	(Guitar1)
|------|
|-0~~~-|
|-0~~~-|

|------|
|------|
|------|	(Guitar2)
|-7~~~-|
|-5~~~-|
|-0~~~-|

Bridge:
|--------------------------------|
|--------------------------------|
|--------------------------------|	(Guitar1 & Guitar2)
|-7~~---------8\5/8-7------------|
|-5~~-5-5-5-5-6\3/6-5-5-5--00-00-|
|-0~~-0-0-0-0---------0-0--00-00-|
      . . . .         . .  .. ..  .palm mute

|----------------------------------|
|----------------------------------|
|----------------------------------|	(Guitar1 & Guitar2)
|-7~~---------8\5/8-7--------------|
|-5~~-5-5-5-5-6\3/6-5-5-5--000-000-|
|-0~~-0-0-0-0---------0-0--000-000-|
      . . . .         . .  ... ...  .palm mute

|----------------------------------|
|----------------------------------|
|----------------------------------|	(Guitar1 & Guitar2)
|-7~~---------8\5/8-7--------------|
|-5~~-5-5-5-5-6\3/6-55555--000-000-|
|-0~~-0-0-0-0--------0000--000-000-|
      . . . .        ....  ... ...  .palm mute

|----------------------------------|
|----------------------------------|
|----------------------------------|	(Guitar1 & Guitar2)
|-7~~---------8\5/8-7--------------|
|-5~~-0-0-0-0-6\3/6-50000--000-000-|
|-0~~-0-0-0-0--------0000--000-000-|
      . . . .        ....  ... ...  .palm mute

Outro:
|------|
|------|
|------|	(Guitar1 & Guitar2)
|------|
|-0~~~-|
|-0~~~-|
Comments