Ill Nino - This Times For Real Chords & Tabs

 

This Times For Real Chords & Tabs

Ill Nino Chords & Tabs

Version: 1 Type: Bass Tab 0 ratings
1 star 2 stars 3 stars 4 stars 5 stars
comments

This Times For Real Bass Tab

Band- Ill Nino
Song- This Times For Real

Tuning: Dropped C (CGCF)


-Intro-

F|---------------------||
C|---------------------||
G|---------------------||
C|-777-10-333-3h5p3----||(x3)


F|-----------------||
C|-----------------||
G|---5-------------||
C|-5---5~----------||



-Verses-

F|---------------------||
C|---------------------||
G|---------------------||
C|-777-10-333-3h5p3----||(x3)


F|-----------------||
C|-----------------||
G|---5-------------||
C|-5---5~----------||


F|---------------------||
C|---------------------||
G|---------------------||
C|-777-10-333-3h5p3----||(x3)


F|----------------------||
C|----------------------||
G|---5---5------8---8---||
C|-5---5---5--8---8---8-||


-Chorus-

F|------------------------------------------------------||
C|------------------------------------------------------||
G|--------3-----3----5-----5----3-----3----0-----0------||
C|-0~---3---3-3----5---5-5----3---3-3----0---0-0--------||
[ Tab from: http://www.guitartabs.cc/tabs/i/ill_nino/this_times_for_real_btab.html ]
F|-----------------------------||
C|-----------------------------||
G|----3-----3----5-----5-------||
C|--3---3-3----5---5-5-----3~--||


-After Chorus-

F|---------------------||
C|---------------------||
G|---------------------||
C|-777-10-333-3h5p3----||(x2)


-Go back to the Verse-

-Then do the Chorus-


-Bridge-

F|--------------------------------------||
C|--------------------------------------||
G|--------------------------------3-----||
C|-/7~-7h9/3~--3p2/7~---7h9/3~--3---3---||



F|--------------------------------------------------------||
C|--------------------------------------------------------||
G|---7-----7------3-----3------7-----7------3-----3-------||
C|-7---7-7---7--3---3-3---3--7---7-7---7--3---3-3---3-----||


F|------------------------------------------------||
C|------------------------------------------------||
G|---7-----7------3-----3------5-----5------8-----||
C|-7---7-7---7--3---3-3---3--5---5-5---5--8---8---||

-Play Chorus until end-
Comments