Ill Nino - This Is War Chords & Tabs

 

This Is War Chords & Tabs

Ill Nino Chords & Tabs

Version: 1 Type: Tab 0 ratings
1 star 2 stars 3 stars 4 stars 5 stars
comments

This Is War Tab

   
Band- Ill Nino
Song- This Is War

* = Pinch Harmonic
/ = Slide Down
p = Pull Off
h = Hammer On
. = pm

Intro: Repeat X2
D---------------------------|
A---------------------------|
F---------------------------|
C-0-0-000-0--------0-0-0-00-|
G-0-0-000-0--------0-0-0-00-|
C-0-0-000-0--------0-0-0-00-|
  . . ... .        . . . ..
Riff 1: Repeat X4
D----------------------------------------------|
A----------------------------------------------|
D-------------------------------------------*5-|
C----------------------------------------------|
G-------5---6-------5--------5----6-------5----|
C-0-000---0---0-0-0---6-0-000---0---0-0-0------|
  . ...   .   . . .     . ...   .   . . .
Interludy Thing: Repeat X4 (Turn bass way down)

D-------------|
A-------------|
F-------------|
C-------------|
G-------------|
C-0-1-2-0-1-0-|

Verse 1: Repeat X16
D------------|
A------------|
F------------|
C-0h1/2-0h1p0
G-0h1/2-0h1p0
C-0h1/2-0h1p0

Chorus: Repeat X2 ()
D---------------------------------------------------------------------|
A---------------------------------------------------------------------|
F---------------------------------------------7-8-5-7-7-8-5-7-7-8-5-7-| -on second time repeat this alot more
C-777777777-333333333-55555555-888888888------x-x-x-x-x-x-x-x-x-x-x-x-| -times
G-777777777-333333333-55555555-888888888------5-6-3-5-5-6-3-5-5-6-3-5-|
C-777777777-333333333-55555555-888888888------------------------------|
  ......... ......... ........ .........
[ Tab from: http://www.guitartabs.cc/tabs/i/ill_nino/this_is_war_tab.html ]
Riff 1: Repeat X4
D----------------------------------------------|
A----------------------------------------------|
D-------------------------------------------*5-|
C----------------------------------------------|
G-------5---6-------5--------5----6-------5----|
C-0-000---0---0-0-0---6-0-000---0---0-0-0------|
  . ...   .   . . .     . ...   .   . . .
Interludy Thing: Repeat X4 (Turn bass way down)

D-------------|
A-------------|
F-------------|
C-------------|
G-------------|
C-0-1-2-0-1-0-|

Verse 2: Repeat X16
D------------|
A------------|
F------------|
C-0h1/2-0h1p0
G-0h1/2-0h1p0
C-0h1/2-0h1p0

Chorus: Repeat X2 ()
D---------------------------------------------------------------|
A---------------------------------------------------------------|
F---------------------------------------------7-8-5-7-8-5-7-8-5-| -on second time repeat this alot more
C-777777777-333333333-55555555-888888888------x-x-x-x-x-x-x-x-x-| -times
G-777777777-333333333-55555555-888888888------5-6-3-5-6-3-5-6-3-|
C-777777777-333333333-55555555-888888888------------------------|
  ......... ......... ........ .........

Riff 1: Repeat X4
D----------------------------------------------|
A----------------------------------------------|
D-------------------------------------------*5-|
C----------------------------------------------|
G-------5---6-------5--------5----6-------5----|
C-0-000---0---0-0-0---6-0-000---0---0-0-0------|
  . ...   .   . . .     . ...   .   . . .
Note is held
D---
A---
F---
C-0-
G-0- Hold this
C-0-


Solo: Have not figured this out.

Riff 1: Repeat X8
D----------------------------------------------|
A----------------------------------------------|
D-------------------------------------------*5-|
C----------------------------------------------|
G-------5---6-------5--------5----6-------5----|
C-0-000---0---0-0-0---6-0-000---0---0-0-0------|
  . ...   .   . . .     . ...   .   . . .
Comments