Ill Nino - Predisposed Chords & Tabs

 

Predisposed Chords & Tabs

Ill Nino Chords & Tabs

Version: 3 Type: Tab

Predisposed Tab

   
Band - Ill Nino
Song - Predisposed
Album - Revolution/Revolucion ( 2001 Roadrunner Records)
Transribed by - Killswtich_mike

Tuning - Low To High -    C-G-C-F-A-D

Intro;

D||--------------------------------------------------|
A||o------------------------------------------------o|
F||--------------------------------------------------|
C||---0-0-0-12-12-12-13h12-10-10-12h13-10-10-10------|
G||o--0-0-0-12-12-12-13h12-10-10-12h13-10-10-10-----o|
C||---0-0-0-12-12-12-13h12-10-10-12h13-10-10-10------|


Verse;

D||---------------------------------------------------||
A||o-------------------------------------------------o||
F||---------------------------------------------------||
C||---0-0-0--0-0-0-0-0-0-0-0-0-0--0-0--1-1-1-1h3-3h1--||
G||o--0-0-0--0-0-0-0-0-0-0-0-0-0--0-0--1-1-1-1h3-3h1-o||
C||---0-0-0--0-0-0-0-0-0-0-0-0-0--0-0--1-1-1-1h3-3h1--||
      . .    . . . . . . . . . .  . 

Chorus;

D||-----------------------------------------------------------||
A||o---------------------------------------------------------o||
F||-----------------------------------------------------------||
C||--8-8-8-8-8-8-8-8-8-8-8-12-12-12-5-5-5-5-5-5-5-5-5-5-5-5---||
G||o-8-8-8-8-8-8-8-8-8-8-8-12-12-12-5-5-5-5-5-5-5-5-5-5-5-5--o||
C||--8-8-8-8-8-8-8-8-8-8-8-12-12-12-5-5-5-5-5-5-5-5-5-5-5-5---||

D||-----------------------------------------------------------||
A||-----------------------------------------------------------||
F||-----------------------------------------------------------||
C||--8-8-8-8-8-8-8-8-8-8-8-12-12-5~---------------------------||
G||--8-8-8-8-8-8-8-8-8-8-8-12-12-5~---------------------------||
C||--8-8-8-8-8-8-8-8-8-8-8-12-12-5~---------------------------||

Pre - Verse

D||--------------------------------------------------|
A||o------------------------------------------------o|
F||--------------------------------------------------|
C||---0-0-0-12-12-12-13h12-10-10-12h13-10-10-10------|
G||o--0-0-0-12-12-12-13h12-10-10-12h13-10-10-10-----o|
C||---0-0-0-12-12-12-13h12-10-10-12h13-10-10-10------|


Verse;
[ Tab from: http://www.guitartabs.cc/tabs/i/ill_nino/predisposed_tab_ver_3.html ]
D||---------------------------------------------------||
A||o-------------------------------------------------o||
F||---------------------------------------------------||
C||---0-0-0--0-0-0-0-0-0-0-0-0-0--0-0--1-1-1-1h3-3h1--||
G||o--0-0-0--0-0-0-0-0-0-0-0-0-0--0-0--1-1-1-1h3-3h1-o||
C||---0-0-0--0-0-0-0-0-0-0-0-0-0--0-0--1-1-1-1h3-3h1--||
      . .    . . . . . . . . . .  . 

Chorus;

D||-----------------------------------------------------------||
A||o---------------------------------------------------------o||
F||-----------------------------------------------------------||
C||--8-8-8-8-8-8-8-8-8-8-8-12-12-12-5-5-5-5-5-5-5-5-5-5-5-5---||
G||o-8-8-8-8-8-8-8-8-8-8-8-12-12-12-5-5-5-5-5-5-5-5-5-5-5-5--o||
C||--8-8-8-8-8-8-8-8-8-8-8-12-12-12-5-5-5-5-5-5-5-5-5-5-5-5---||

D||-----------------------------------------------------------||
A||-----------------------------------------------------------||
F||-----------------------------------------------------------||
C||--8-8-8-8-8-8-8-8-8-8-8-12-12-5~---------------------------||
G||--8-8-8-8-8-8-8-8-8-8-8-12-12-5~---------------------------||
C||--8-8-8-8-8-8-8-8-8-8-8-12-12-5~---------------------------||

Bridge; And Part Over Keyboard

D||---------------------------------||
A||---------------------------------||
F||---------------------------------||
C||--5~-----------5~----------5~----||
G||--5~-----------5~----------5~----||
C||--5~-----------5~----------5~----||

Fill;

D||----------------------||
A||----------------------||
F||----------------------||
C||---55555555-33333333--||
G||---55555555-33333333--||
C||---55555555-33333333--||
      ........ ........

Outro Chorus;

D||-----------------------------------------------------------||
A||o---------------------------------------------------------o||
F||-----------------------------------------------------------||
C||--8-8-8-8-8-8-8-8-8-8-8-12-12-12-5-5-5-5-5-5-5-5-5-5-5-5---||
G||o-8-8-8-8-8-8-8-8-8-8-8-12-12-12-5-5-5-5-5-5-5-5-5-5-5-5--o||
C||--8-8-8-8-8-8-8-8-8-8-8-12-12-12-5-5-5-5-5-5-5-5-5-5-5-5---||

D||-----------------------------------------------------------||
A||-----------------------------------------------------------||
F||-----------------------------------------------------------||
C||--8-8-8-8-8-8-8-8-8-8-8-12-12-5~---------------------------||
G||--8-8-8-8-8-8-8-8-8-8-8-12-12-5~---------------------------||
C||--8-8-8-8-8-8-8-8-8-8-8-12-12-5~---------------------------||


Repeat First Bar Alot Then Finish With The Second Bar


Please Comment & Rate!

Cheers