Ill Nino - No Murder Chords & Tabs

 

No Murder Chords & Tabs

Ill Nino Chords & Tabs

Version: 2 Type: Tab 0 ratings
1 star 2 stars 3 stars 4 stars 5 stars
comments

No Murder Tab

   
---------------------------------------------------------------------
	              Ill Nino Ė No Murder        
---------------------------------------------------------------------


By:Negative creep
I hope itís correct the clean parts iím not so sure about.
This is my first tab but if been playing for 1 Ĺ years now so..

Tuning: D a D g b e

P.M.=Palm mute
>>>>= Slide

Intro/ 1x
e|-------------------------------------|
B|-------------------------------------|
G|-------------------------------------|
D|-------------------------------------|
A|-------------------------------------|
D|-32020202-32020202-32020202-32020202-|

Brige 1/ 1x
e|---|
B|---|
G|---|
D|-3-|
a|-3-|
D|-3-|

Chorus/ 2x 
E|------------------------------------|
B|------------------------------------|
G|------------------------------------|
D|-32020202-32020202-32020202-32020202| 
a|-32020202-32020202-32020202-32020202| 
D|-32020202-32020202-32020202-32020202|

[ Tab from: http://www.guitartabs.cc/tabs/i/ill_nino/no_murder_tab_ver_2.html ]
Chorus/ 2x with P.M.
E|------------------------------------|
B|------------------------------------|
G|------------------------------------|
D|-32020202-32020202-32020202-32020202| 
a|-32020202-32020202-32020202-32020202| 
D|-32020202-32020202-32020202-32020202|
     ......   ......   ......   ...... P.M.

Verse Clean/ 16x
e|---------------------|
B|--9---8-----5--------|
G|---------------------|
D|---------------------|
A|---------------------|
D|---------------------|


Brige 2/ after 8x verse then 8x brige 2
e|-----------|
B|-----------|
G|-----------|
D|-1-0~~~~~~-|
a|-1-0-~~~~~~|
D|-1-0-~~~~~~|


Brige 3/  4x each time play after the vocal part play 
E|--------|
B|--------|
G|--------|
D|-320202-| 
a|-320202-| 
D|-320202-|

Brige4/ 1x 
e|-------|
B|-------|
G|-------|
D|->>>>2-|
A|->>>>2-|
D|->>>>2-|

Chorus 2/  4x the second guitar plays a diffrent riff but i canít
figure it out !! 
e|---------------------------------|
B|---------------------------------|
G|---------------------------------|
D|-2-2-2-2-5-5-5-5-0-0-0-0-3-3-3-3-|
a|-2-2-2-2-5-5-5-5-0-0-0-0-3-3-3-3-|
D|-2-2-2-2-5-5-5-5-0-0-0-0-3-3-3-3-|

Then play
Chorus/ 8x
Chorus P.M./8x
Verse Clean/ 16x
Brige 2/ 8x after 8 x verse clean
Brige 3/ 4x each time after vocal part
Chorus 2/ 8x
Chorus/ 9x 
 
The end !!!
Comments