Ill Nino - No Murder Chords & Tabs

 

No Murder Chords & Tabs

Ill Nino Chords & Tabs

Version: 1 Type: Bass Tab 0 ratings
1 star 2 stars 3 stars 4 stars 5 stars
comments

No Murder Bass Tab

   
Band- Ill Nino
Song- No Murder

Tuning: C G C F

Intro:
|-------------------------------|
|-------------------------------|
|-------------------------------|
|----------------------0--------|


Main riff 1: x7

|-----------------|
|-----------------|
|-----------------|
|-3-2-0-2-0-2-0-2-|


Main riff 2: x9

|-----------------|
|-----------------|
|-----------------|
|-3-2-0-2-0-0-0-0-|


Verse part 1: x8

|------------|
|------------|
|------------|
|-0-00---0-|


Verse part 2: x8

|---------|
|---------|
|---------|
|-3-3-2-|

[ Tab from: http://www.guitartabs.cc/tabs/i/ill_nino/no_murder_btab.html ]
Pre-Chorus: x4

|----------------|
|----------------|
|----------------|
|-3-2-0-2-0-2----|


Chorus: x4

|-------------------------------------------------------------------------|
|-------------------------------------------------------------------------|
|-------------------------------------------------------------------------|
|-7-7-7-7-7-7-7-7-10-10-10-10-10~------10-0-0-0-0-0-0-0-0-3-3-3-3-3~------|


Main riff 1: x7

Main riff 2: x9

Verse part 1: x8

Verse part 2: x8

Pre-chorus: x4

Chorus: x8

Main riff 1: x8

Outro: x1

|-------------|
|-------------|
|-------------|
|-3-2-0-2-0-2-|
Comments