Ill Nino - Liar Chords & Tabs

 

Liar Chords & Tabs

Ill Nino Chords & Tabs

Version: 2 Type: Tab 0 ratings
1 star 2 stars 3 stars 4 stars 5 stars
comments

Liar Tab

Intro
------------------------------------
------------------------------------
--7-----7-----7---------------------
--7-0-0-7-0-0-7-0-0--8-8-8-8-8-8-8--
--5-0-0-5-0-0-5-0-0--8-8-8-8-8-8-8--
----0-0---0-0---0-0--8-8-8-8-8-8-8--

Chorus (Guitar 1)
-------------------------------------------------------------------
-------------------------------------------------------------------
-------------------------------------------------------------------
-7-7-7-7-7-7-0-8-8-8-8-8-8-8-0-7-7-7-7-7-7-0--3-3-3-3-3-3-3-3-3-3--
-7-7-7-7-7-7-0-8-8-8-8-8-8-8-0-7-7-7-7-7-7-0--3-3-3-3-3-3-3-3-3-3--
-7-7-7-7-7-7-0-8-8-8-8-8-8-8-0-7-7-7-7-7-7-0--3-3-3-3-3-3-3-3-3-3--
[ Tab from: http://www.guitartabs.cc/tabs/i/ill_nino/liar_tab_ver_2.html ]
Chorus (Guitar 2)
------------------------------------------------------------
--17--------------18----------------17----------------------
----------------------------------------------------17------
------------------------------------------------------------
------------------------------------------------------------
------------------------------------------------------------

"All my hate is now arising"
---------------------
---------------------
---------------------
--------------------- 4x
---------------------
--0-0--0-0-0-0--0-0--

Outro
----------------
----------------
----------------
--0-0--0-0-0-0--
--0-0--0-0-0-0--
--0-0--0-0-0-0--
Comments