Ill Nino - If You Still Hate Me Chords & Tabs

 

If You Still Hate Me Chords & Tabs

Ill Nino Chords & Tabs

Version: 1 Type: Tab 0 ratings
1 star 2 stars 3 stars 4 stars 5 stars
comments

If You Still Hate Me Tab

Artist : Ill nino
Song : If you still hate me
Album : Revolution/Revolucion
Transcribed by : ill mummy
Email : illmummy@hotmail.com
Comments: Awesome song by Ill nino,
   i tabbed both guitars, any questions email me. thanx
   and by the way if u dont want to use a wah , use a phaser it sounds good too.
Palm muted: ..
harmonic  : * ( 4.1 means right at the beginning of fret 4)
[ Tab from: http://www.guitartabs.cc/tabs/i/ill_nino/if_you_still_hate_me_tab.html ]
  Guitar 1  - INTRO -
A------------------------------------------------------------------------------
D------------------------------------------------------------------------------
F------------------------------------------------------------------------------
C--0-0-------------------------------------------------------------------------
G--0-0----let Ring out--------Repeat 4x----------------------------------------
C--0-0-------------------------------------------------------------------------
                                                                
  Guitar 2  - INTRO - (listen carefully to this part to get the fast ryhthm) 
A------------------------------------------------------------------------------
D------------------------------------------------------------------------------
F--7-7-x-x-x-x-10-9-9-9-x-x-x-x-11-10-10-10-x-x-x-x-14-14-13-13-13-11-11-------
C--x-x-x-x-x-x-x--x-x-x-x-x-x-x-x--x--x--x--x-x-x-x-x--x--x--x--x--x--x--------
G--5-5-x-x-x-x-8--7-7-7-x-x-x-x-9--8--8--8--x-x-x-x-12-12-11-11-11-9--9--------
C-------------------------------------------------------------------Repeat 4x--
                                                                            
  Guitar 1  - SECOND INTRO/PRE VERSE - 
A------------------------------------------------------------------------------
D------------------------------------------------------------------------------
F------------------------------------------------------------------------------
C--1-0-1-1-0-1-0-1-1-0-1-0-1-1-0-1-0--3----------------------------------------
G--1-0-1-1-0-1-0-1-1-0-1-0-1-1-0-1-0--3---Repeat 4x----------------------------
C--1-0-1-1-0-1-0-1-1-0-1-0-1-1-0-1-0--3----------------------------------------
                                                                              
  Guitar 2  - SECOND INTRO/PRE VERSE -
A------------------------------------------------------------------------------
D------------------------------------------------------------------------------
F------------------------------------------------------------------------------
C--1-0-1-1-0-1-0-1-1-0-1-0-1-1-0-1-0--3----------------------------------------
G--1-0-1-1-0-1-0-1-1-0-1-0-1-1-0-1-0--3---Repeat 4x----------------------------
C--1-0-1-1-0-1-0-1-1-0-1-0-1-1-0-1-0--3----------------------------------------
                                                                              
  Guitar 1  - VERSE -                                   
A-------------------------------|---------------------------------------------------
D-------------------------------|---(last time)-------------------------3-3-3-4-4-4-
F-------------------------------|---------------------------3-3-3-5-5-5-0-0-0-0-0-0-
C--1-0------0-1-1-0-------------|-1-0-----0-1-1-0-0-0-0-0-0-0-0-0-0-0-0-0-0---0-0-0-
G--1-0------0-1-1-0--Repeat 3x--|-1-0-----0-1-1-0-0-0-0-0-0---0-0---0-0-------------
C--1-0------0-1-1-0-------------|-1-0-----0-1-1-0-0-0-0-0-0-------------------------
                                                . . . . . .       
  Guitar 2  - VERSE -                                      (use a wah on this part)
A-------------------------------|---------------------------------------------------
D-------------------------------|---(last time)-------------------------3-3-3-4-4-4-
F-------------------------------|---------------------------3-3-3-5-5-5-0-0-0-0-0-0-
C--1-0------0-1-1-0-------------|-1-0-----0-1-1-0-0-0-0-0-0-0-0-0-0-0-0-0-0---0-0-0-
G--1-0------0-1-1-0--Repeat 3x--|-1-0-----0-1-1-0-0-0-0-0-0---0-0---0-0-------------
C--1-0------0-1-1-0-------------|-1-0-----0-1-1-0-0-0-0-0-0-------------------------
                                                . . . . . .                   
  Guitar 1  - CHORUS -
A-----------------------------------------------------|--------------------------
D-----------------------------------------------------|--------------3-3-3-4-4-4-
F-----------------------------------------------------|--3-3-3-5-5-5-0-0-0-0-0-0-
C-----------------------------------------------------|--0-0-0-0-0-0-0-0---0-0-0-
G-------------------------------------------Repeat 4x-|--0---0---0-0-------------
C--1-0-0-0-4.1-0-1-3-0-0-1-0-0-0-4.1-0-0-0-0----------|--------------------------
            *                     *                                           
  Guitar 2  - CHORUS -                                   (use a wah on this part)
A-----------------------------------------------------|--------------------------
D-----------------------------------------------------|--------------3-3-3-4-4-4-
F-----------------------------------------------------|--3-3-3-5-5-5-0-0-0-0-0-0-
C-----------------------------------------------------|--0-0-0-0-0-0-0-0---0-0-0-
G-------------------------------------------Repeat 4x-|--0---0---0-0-------------
C--1-0-0-0-4.1-0-1-3-0-0-1-0-0-0-4.1-0-0-0-0----------|--------------------------
            *                     *                                              
  Guitar 1  - PRE VERSE -               
A------------------------------------------------------------------------------
D------------------------------------------------------------------------------
F------------------------------------------------------------------------------
C--1-0-1-1-0-1-0-1-1-0-1-0-1-1-0-1-0--3----------------------------------------
G--1-0-1-1-0-1-0-1-1-0-1-0-1-1-0-1-0--3---Repeat 2x----------------------------
C--1-0-1-1-0-1-0-1-1-0-1-0-1-1-0-1-0--3----------------------------------------
                                                                              
  Guitar 2  - PRE VERSE -                
A------------------------------------------------------------------------------
D------------------------------------------------------------------------------
F------------------------------------------------------------------------------
C--1-0-1-1-0-1-0-1-1-0-1-0-1-1-0-1-0--3----------------------------------------
G--1-0-1-1-0-1-0-1-1-0-1-0-1-1-0-1-0--3---Repeat 2x----------------------------
C--1-0-1-1-0-1-0-1-1-0-1-0-1-1-0-1-0--3----------------------------------------
                                                                              
 Guitar 1  - VERSE -                                   
A--------------------------------|-------------------------------------------------
D--------------------------------|---(last time)-----------------------3-3-3-4-4-4-
F--------------------------------|-------------------------3-3-3-5-5-5-0-0-0-0-0-0-
C--1-0------0-1-1-0--------------|--1-0-----0-1-1-0-0-0-0--0-0-0-0-0-0-0-0---0-0-0-
G--1-0------0-1-1-0--Repeat 3x---|--1-0-----0-1-1-0-0-0-0--0---0---0-0-------------
C--1-0------0-1-1-0--------------|--1-0-----0-1-1-0-0-0-0--------------------------
                                                  . . . .                          
  Guitar 2  - VERSE -                                      (use a wah on this part)
A--------------------------------|-------------------------------------------------
D--------------------------------|---(last time)-----------------------3-3-3-4-4-4-
F--------------------------------|-------------------------3-3-3-5-5-5-0-0-0-0-0-0-
C--1-0------0-1-1-0--------------|--1-0-----0-1-1-0-0-0-0--0-0-0-0-0-0-0-0---0-0-0-
G--1-0------0-1-1-0--Repeat 3x---|--1-0-----0-1-1-0-0-0-0--0---0---0-0-------------
C--1-0------0-1-1-0--------------|--1-0-----0-1-1-0-0-0-0--------------------------
                                                  . . . .                         
  Guitar 1  - CHORUS -                                               repeat 2x
A-----------------------------------------------------|--------------------------
D-----------------------------------------------------|--------------3-3-3-4-4-4-
F-----------------------------------------------------|--3-3-3-5-5-5-0-0-0-0-0-0-
C-----------------------------------------------------|--0-0-0-0-0-0-0-0---0-0-0-
G-------------------------------------------Repeat 4x-|--0---0---0-0-------------
C--1-0-0-0-4.1-0-1-3-0-0-1-0-0-0-4.1-0-0-0-0----------|--------------------------
            *                     *                                           
  Guitar 2  - CHORUS -                                   (use a wah on this part)
A-----------------------------------------------------|--------------------------
D-----------------------------------------------------|--------------3-3-3-4-4-4-
F-----------------------------------------------------|--3-3-3-5-5-5-0-0-0-0-0-0-
C-----------------------------------------------------|--0-0-0-0-0-0-0-0---0-0-0-
G-------------------------------------------Repeat 4x-|--0---0---0-0-------------
C--1-0-0-0-4.1-0-1-3-0-0-1-0-0-0-4.1-0-0-0-0----------|--------------------------
            *                     *                           
  Guitar 1  - BRIDGE -
A------------------------------------------------------------------------------
D------------------------------------------------------------------------------
F------------------------------------------------------------------------------
C--0-0-------------------------------------------------------------------------
G--0-0----let Ring out--------Repeat 8x----------------------------------------
C--0-0-------------------------------------------------------------------------
                                                               
  Guitar 2  - BRIDGE -  (listen carefully to this part to get the fast ryhthm)   
A------------------------------------------------------------------------------
D------------------------------------------------------------------------------
F--7-7-x-x-x-x-10-9-9-9-x-x-x-x-11-10-10-10-x-x-x-x-14-14-13-13-13-11-11-------
C--x-x-x-x-x-x-x--x-x-x-x-x-x-x-x--x--x--x--x-x-x-x-x--x--x--x--x--x--x--------
G--5-5-x-x-x-x-8--7-7-7-x-x-x-x-9--8--8--8--x-x-x-x-12-12-11-11-11-9--9--------
C-------------------------------------------------------------------Repeat 4x--
                                                                              
  Guitar 1  - PRE OUTRO -  
A-------------------------------------------------------------------------------
D-------------------------------------------------------------------------------
F-------------------------------------------------------------------------------
C-----( Guitar 1 does some kind of scratch right after Guitar 2 riff) ----------
G-------------------------------------------------------------------------/////-
C-------------------------------------------------------------------------/////-
  
  Guitar 2  - PRE OUTRO -
A-------------------------------------------------------------------------------
D-------------------------------------------------------------------------------
F-------------------------------------------------------------------------------
C-------------------------------------------------------------------------------
G--1-0--------------------------------------------------------------------------
C--1-0-0-0-4.1-0-1-3-0-0-1-0-0-0-4.1-0-0-0-0-1-0-0-0-4.1-0-1-3-0-0-1-0-0-0------
                                                                     
   Guitar 1  - OUTRO -
A------------------------------------------------------|--------------------------
D------------------------------------------------------|--------------3-3-3-4-4-4-
F------------------------------------------------------|--3-3-3-5-5-5-0-0-0-0-0-0-
C--1-0-0-0-----0-1-3-0-0-1-0-0-0-----0-0-0-0-----------|--0-0-0-0-0-0-0-0---0-0-0-
G--1-0-0-0-----0-1-3-0-0-1-0-0-0-----0-0-0-0-Repeat 4x-|--0---0---0-0-------------
C--1-0-0-0-4.1-0-1-3-0-0-1-0-0-0-4.1-0-0-0-0-----------|--------------------------
            *                     *                                              
  Guitar 2  - OUTRO -                                   (use a wah on this part)
A------------------------------------------------------|--------------------------
D------------------------------------------------------|--------------3-3-3-4-4-4-
F------------------------------------------------------|--3-3-3-5-5-5-0-0-0-0-0-0-
C--1-0-0-0-----0-1-3-0-0-1-0-0-0-----0-0-0-0-----------|--0-0-0-0-0-0-0-0---0-0-0-
G--1-0-0-0-----0-1-3-0-0-1-0-0-0-----0-0-0-0-Repeat 4x-|--0---0---0-0-------------
C--1-0-0-0-4.1-0-1-3-0-0-1-0-0-0-4.1-0-0-0-0-----------|--------------------------
            *                     *                                       
  Guitar 1  - OUTRO last part -
A--------------------------------------------------------------------------------
D--------------3-3-3-4-4-4-------------------------------------------------------
F--3-3-3-5-5-5-0-0-0-0-0-0-------------------------------------------------------
C--0-0-0-0-0-0-0-0---0-0-0---1-0-------------------------------------------------
G--0---0---0-0---------------1-0-------------------------------------------------
C----------------------------1-0-------------------------------------------------

 Guitar 2   - OUTRO last part -
A--------------------------------------------------------------------------------
D--------------3-3-3-4-4-4-------------------------------------------------------
F--3-3-3-5-5-5-0-0-0-0-0-0-------------------------------------------------------
C--0-0-0-0-0-0-0-0---0-0-0---1-0-------------------------------------------------
G--0---0---0-0---------------1-0-------------------------------------------------
C----------------------------1-0-------------------------------------------------
Comments