Ill Nino - If You Still Hate Me Chords & Tabs

 

If You Still Hate Me Chords & Tabs

Ill Nino Chords & Tabs

Version: 1 Type: Bass Tab 0 ratings
1 star 2 stars 3 stars 4 stars 5 stars
comments

If You Still Hate Me Bass Tab

~~~~~~~~~~~~~~~~~~~~~~ill nino~~~~~~~~~~~~~~~~~~~~~~

~~~~~~~~~~~~~~~~if you still hate me~~~~~~~~~~~~~~~~

if you still hate me
by zack anderson
gb_packers152004@hotmail.com

intro

G|--------|
D|--------|      
A|--------|
E|-11~----|   

pre verse
G|----------------------------|
D|----------------------------|  
A|----------------------------|  x4
E|-2022020220202203-----------|

verse 1  x4                     on final repeat
G|---------------------------|---------------------|
D|---------------------------|---------------------|
A|---------------------------|------------3335555--| 
E|-10------011---------------|111111333666---------|  

chorus   x4                     x1
G|---------------------------|-----------------------|
D|---------------------------|-----------------------|
A|---------------------------|------3334444----------|
E|-2-1114-101-3002-111421111-|333666-----------------|
[ Tab from: http://www.guitartabs.cc/tabs/i/ill_nino/if_you_still_hate_me_btab.html ]
pre verse
G|---------------------------|
D|---------------------------|  
A|---------------------------|  x4
E|-2022020220202203----------|

verse 2  x4                     on final repeat
G|---------------------------|---------------------|
D|---------------------------|---------------------|
A|---------------------------|------------3335555--| 
E|-10------011---------------|111111333666---------|  


chorus   x4                      x2
G|---------------------------|-----------------------|
D|---------------------------|-----------------------|
A|---------------------------|------3334444----------|
E|-2-1114-101-3002-111421111-|333666-----------------|

bridge-
G|------|
D|------|      x8
A|------|
E|-11~--|  

chorus   x4                      x2
G|---------------------------|-----------------------|
D|---------------------------|-----------------------|
A|---------------------------|------3334444----------|
E|-2-1114-101-3002-111421111-|333666-----------------|

end with
G|------|
D|------|
A|------|
E|-11---|
Comments