Ill Nino - I Am Loco Chords & Tabs

 

I Am Loco Chords & Tabs

Ill Nino Chords & Tabs

Version: 1 Type: Tab 0 ratings
1 star 2 stars 3 stars 4 stars 5 stars
comments

I Am Loco Tab

   
Artist: ill nino
Song: I am loco
[ Tab from: http://www.guitartabs.cc/tabs/i/ill_nino/i_am_loco_tab.html ]
Drop D-Tuned to C
C-G-C-F-A-D
 
intro-They use Samples, I just substitute this, sounds ok w/effects 
and palm mute.
1|-------------------------------------------------------------------
2|-------------------------------------------------------------------
3|-------------------------------------------------------------------
4|---------8-8-9-8-8-9-8-8-9-8-8-9-8-8-9-8-8-9-(just listen to rythm)
5|-------------------------------------------------------------------
6|-------------------------------------------------------------------
 
1st heavy part"I feel like it's living in me"
1|------------------------------------------------------
2|------------------------------------------------------
3|------------------------------------------------------
4|------------------------------------------------------
5|----0-0------------------------------------------0-0--(just listen to rythm)
6|----0-0-----1-0-0-0-1-0-0-1-0-0-0-1-0---0-0-----------
 
1st Verse part-same as intro with just an added open E
 
Chorus (just listen to rythm)
1|--------------------------------------------------------
2|--------------------------------------------------------
3|--------------------------------------------------------
4|--------------------------------------------------------
5|--------0---0---0------------7------3-3-3--------0--0--0
6|--------0---0---0------------7------3-3-3--------0--0--0
Comments