Ill Nino - How Can I Live Chords & Tabs

 

How Can I Live Chords & Tabs

Ill Nino Chords & Tabs

Version: 2 Type: Tab 0 ratings
1 star 2 stars 3 stars 4 stars 5 stars
comments

How Can I Live Tab


Song: How Can I Live?
Band: Ill nino
Album: Confession
Tabbed By: aerialspider


Legend:

h - hammer on 
p - pull off 
b - bend string up
r - release bend
/ - slide up
\ - slide down
v - vibrato (sometimes written as ~)
t - right hand tap
x - dead note
PM - Palm Mute
SPM - Slight Palm Mute



Verse/Intro: Guitar 1 (distortion SPM)
D---------------------------------------------------------------------
A---------------------------------------------------------------------
F---------------------------------------------------------------------
C---------------------------------------------------------------------
G---------------------------------------------------------------------
C--3-2-0-2-3-2--2--2--2-3-2-----3-2-0-2-3-2--2-2-2-3-2----------------

Verse/Intro: Guitar 1 (distortion)
D---------------------------------------------------------------------
A---------------------------------------------------------------------
F---------------------------------------------------------------------
C---------------------------------------------------------------------
G---------------------------------------------------------------------
C--3-2-0-2-3-2--2--2--2-3-2-----3-2-0-2-3-2--2--2--2-2----------------

Intro: Guitar 2 (flanger and/or wah) 
D-------5-------------------------------------5-----------------------
A-------5-------------------------------------5-----------------------
F---------------------------------------------------------------------
C---------------------------------------------------------------------
G---------------------------------------------------------------------
C---------------------------------------------------------------------




Verse2: Guitar 1 (distortion)              x 2
D---------------------------------------------------------------------
A---------------------------------------------------------------------
F---------------------------------------------------------------------
C---------------------------------------------------------------------
G--3-2-0-2-2-2-3-2--2-2-2-----3-2-0-2-2-2-3-2-2-2---------------------
C--3-2-0-2-2-2-3-2--2-2-2-----3-2-0-2-2-2-3-2-2-2---------------------

Verse2: Guitar 2 (flanger)		   x 2
D--15-15-15-15p-14-14-14-14--14-14-14-14p-12-12-12-12-----------------
A---------------------------------------------------------------------
F---------------------------------------------------------------------
C---------------------------------------------------------------------
G---------------------------------------------------------------------
C---------------------------------------------------------------------



[ Tab from: http://www.guitartabs.cc/tabs/i/ill_nino/how_can_i_live_tab_ver_2.html ]
Verse3: Guitar 1 (clean/flanger)           x 4
D-------------------------------17------------------------------------
A----20-18-20-18-------20-18-20----20-18------------------------------
F---------------------------------------------------------------------
C---------------------------------------------------------------------
G---------------------------------------------------------------------
C---------------------------------------------------------------------
  "I am so alike you..."




Verse2: Guitar 1 (distortion)              x 2
  "Why, we make the same mistake..."




Chorus: Guitar 1 (acoustic)   Guitar 1 (distorted)
D--------------------------|------------------------------------------
A--------------------------|------------------------------------------
F--------------------------|------------------------------------------
C--2-2-2-2-2-2/5-5-5-5-5-5-|-10-10-10-10-10-10\-7-7-7-7-7-7-----------
G--2-2-2-2-2-2/5-5-5-5-5-5-|-10-10-10-10-10-10\-7-7-7-7-7-7-----------
C--2-2-2-2-2-2/5-5-5-5-5-5-|-10-10-10-10-10-10\-7-7-7-7-7-7-----------
   "All the lies in me..."




Chorus: Guitar 1+2 (distorted)       
D---------------------------------------------------------------------
A---------------------------------------------------------------------
F---------------------------------------------------------------------
C----2-2-2-2-2-2/5-5-5-5-5-5/10-10-10-10-10-10\-7-7-7-7-7-7-----------
G----2-2-2-2-2-2/5-5-5-5-5-5/10-10-10-10-10-10\-7-7-7-7-7-7-----------
C----2-2-2-2-2-2/5-5-5-5-5-5/10-10-10-10-10-10\-7-7-7-7-7-7-----------
   "All the lies in me..."




Verse2: Guitar 1 (distortion)              x 2
Verse2: Guitar 2 (flanger)		   x 2




Verse3: Guitar 1 (clean/flanger)           x 4
   "I am your mirror image..."




Verse2: Guitar 1+2 (distortion)            x 2
   "Why, we make the same mistakes..."




Chorus: Guitar 1 (acoustic)   Guitar 1 (distorted)
   "All the lies in me..."




Chorus: Guitar 1+2 (distorted)       
   "All the lies in me..."




Verse/Intro: Guitar 1 (distortion SPM)
Intro: Guitar 2 (flanger and/or wah)
   "...Youuuu..."




Verse/Intro: Guitar 1 (distortion)         x 4
   "Why!!..."




Chorus: Guitar 1+2 (acoustic)              x 2
   "Do you think of me..." 




Chorus: Guitar 1+2 (distortion)            x 2
   "All the lies in me..."




Verse2: Guitar 1 (distortion)              
Verse2: Guitar 2 (flanger)		   
   "...Youuuu..."

The way I noted riffs that are already written down is a little
weird, so, if you can't understand my method, just listen to the 
song and compare...  Also note that this is not the same version
as on the video, it may just have different lyrics in a short part...
This is my first tab; I have no idea whether it's 100% correct, 
but it's close.  Email with corrections if you like ...  





Comments