Ill Nino - How Can I Live Chorus Chords & Tabs

 

How Can I Live Chorus Chords & Tabs

Ill Nino Chords & Tabs

Version: 1 Type: Tab 0 ratings
1 star 2 stars 3 stars 4 stars 5 stars
comments

How Can I Live Chorus Tab

Seem to have forgotten the chorus when I made the other tab…. Oops
Drop C tuning
Clean
---------------------------------
---------------------------------
---------------------------------
--2--5---------------------------
--2--5---------------------------
--2--5---------------------------

Distorted
---------------------------------
---------------------------------
---------------------------------
--10--7--2--5--10--7-------------
--10--7--2--5--10--7-------------
--10--7--2--5--10--7-------------

-tribalwarrior85
[ Tab from: http://www.guitartabs.cc/tabs/i/ill_nino/how_can_i_live_chorus_tab.html ]
Comments