Ill Nino - How Can I Live Chords & Tabs

 

How Can I Live Chords & Tabs

Ill Nino Chords & Tabs

Version: 1 Type: Bass Tab 0 ratings
1 star 2 stars 3 stars 4 stars 5 stars
comments

How Can I Live Bass Tab

Band- Ill Nino
Song- How Can I Live

TUNED: drop C


----------------------------
Intro:
|------------------------|
|------------------------|
|------------------------|
|-3-2-0-2-3-2--2-2-2-3-2-|  3x

|----------------------|
|----------------------|
|----------------------|
|-3-2-0-2-3-2--2-2-2-2-|

|------------------------|
|------------------------|
|------------------------|
|-3-2-0-2-2--2-3-2-0-2-2-|

|----------------------|
|----------------------|
|----------------------|
|-3-2-0-2-2--2-3-2-0-2-|

|------------------------|
|------------------------|
|------------------------|
|-3-2-0-2-2--2-3-2-0-2-2-|

|--------------------|
|--------------------|
|--------------------|
|-3-2-0-2-2--2-3-2-0-|


----------------------------
Verse:
|-----------------|
|-----------------|
|-----------------|
|-0---7---3---5---|  4x

|------------------------|
|------------------------|
|------------------------|
|-3-2-0-2-2--2-3-2-0-2-2-|

|----------------------|
|----------------------|
|----------------------|
|-3-2-0-2-2--2-3-2-0-2-|

|------------------------|
|------------------------|
|------------------------|
|-3-2-0-2-2--2-3-2-0-2-2-|

|--------------------|
|--------------------|
|--------------------|
|-3-2-0-2-2--2-3-2-0-|


----------------------------
Chorus:
|----------------------------------------------------|
|----------------------------------------------------|
|-7-----------10-------------------------------------|
|--------------------------10-----------7------------|

|--------------------------------------------------|
|--------------------------------------------------|
|--------------------------------------------------|
|-2-----------5-----------10-----------7-----------|

|------------------------|
|------------------------|
|------------------------|
|-3-2-0-2-2--2-3-2-0-2-2-|

|----------------------|
|----------------------|
|----------------------|
|-3-2-0-2-2--2-3-2-0-2-|
[ Tab from: http://www.guitartabs.cc/tabs/i/ill_nino/how_can_i_live_btab.html ]
|------------------------|
|------------------------|
|------------------------|
|-3-2-0-2-2--2-3-2-0-2-2-|

|--------------------|
|--------------------|
|--------------------|
|-3-2-0-2-2--2-3-2-0-|


----------------------------
Verse:
|-----------------|
|-----------------|
|-----------------|
|-0---7---3---5---|  4x

|------------------------|
|------------------------|
|------------------------|
|-3-2-0-2-2--2-3-2-0-2-2-|

|----------------------|
|----------------------|
|----------------------|
|-3-2-0-2-2--2-3-2-0-2-|

|------------------------|
|------------------------|
|------------------------|
|-3-2-0-2-2--2-3-2-0-2-2-|

|--------------------|
|--------------------|
|--------------------|
|-3-2-0-2-2--2-3-2-0-|


----------------------------
Chorus:
|---------------------------------------------------|
|---------------------------------------------------|
|-7-----------10------------------------------------|
|--------------------------10-----------7-----------|

|--------------------------------------------------|
|--------------------------------------------------|
|--------------------------------------------------|
|-2-----------5-----------10-----------7-----------|

|------------------------|
|------------------------|
|------------------------|
|-3-2-0-2-3-2--2-2-2-3-2-|  12x


----------------------------
Bridge:
|----------------------------------------------------|
|----------------------------------------------------|
|-7-----------10-----------15-----------12-----------|
|----------------------------------------------------|   2x


----------------------------
Chorus:
|--------------------------------------------------|
|--------------------------------------------------|
|--------------------------------------------------|
|-2-----------5-----------10-----------7-----------|   2x

|------------------------|
|------------------------|
|------------------------|
|-3-2-0-2-2--2-3-2-0-2-2-|   2x
Comments