Ill Nino - God Save Us Chords & Tabs

 

God Save Us Chords & Tabs

Ill Nino Chords & Tabs

Version: 2 Type: Tab 0 ratings
1 star 2 stars 3 stars 4 stars 5 stars
comments

God Save Us Tab

   
#----------------------------------PLEASE NOTE---------------------------------#
#This file is the author's own work and represents their interpretation of the #
#song. You may only use this file for private study, scholarship, or research. #
#------------------------------------------------------------------------------##

Artist: Ill Nino
Song: God Save Us
Album: Revolution Revolución
Tabbed by: §pike
E-mail: x0x_soulfly_x0x@hotmail.com

Hey, I tabbed this song cause my band were supposed to cover it. We never got
around to it like. But the acoustic part I worked on and with it being so quite thats 
all I came up with. It's pretty much correct but hey nothings perfect and I don't exactly
have the equipment to get the sound levels right so I can hear things correctly n shit. It's not
the most complicated song like. So me thinks it should be pretty accurate.

Intro:
D|--------------|
A|--------------|
F|-8-8-8-8-8/7--|
C|-x-x-x-x-x-x--|
G|-6-6-6-6-6/5--|
C|--------------|

                                    
D|----------------------------------------------------------|
A|----------------------------------------------------------|
F|----------------------------------------------------------|
C|----------------------------------------------------------|
G|----------------------------------------0-0--0-0-0-0-0-0--|
C|-0-0-0-0-0-1--0-0-0-0-0-1--0-0-0-0-0-1--0-0--0-0-0-0-0-0--|
                                       PM|. .  . . . . . .

D|-------------------------------------------------------|
A|-------------------------------------------------------|
F|-------------------------------------------------------|
C|-------------------------------------------------------|
G|-0-0-0-0-0-1--0-0-0-0-0-1--0-0-0-0-0-1--0-0-0-0-0------|
C|-0-0-0-0-0-1--0-0-0-0-0-1--0-0-0-0-0-1--0-0-0-0-0-[5]--|

Verse:
D|--------------|
A|--------------|
F|-8-8-8-8-8/7--|
C|-x-x-x-x-x-x--|
G|-6-6-6-6-6/5--|
C|--------------|

D|--------------|
A|--------------|
F|--------------|
C|--------------|
G|-0-0-0-0-0-0--|
C|-0-0-0-0-0-0--|
PM|. . . . . .

D|-------------------------------------------------------|
A|-------------------------------------------------------|
F|-------------------------------------------------------|
C|-------------------------------------------------------|
G|-0-0-0-0-0-1--0-0-0-0-0-1--0-0-0-0-0-1--0-0-0-0-0------|
C|-0-0-0-0-0-1--0-0-0-0-0-1--0-0-0-0-0-1--0-0-0-0-0-[5]--|

Chorus:
D|------------------------------------------------------------|
A|------------------------------------------------------------|
F|------------------------------------------------------------|
C|-14-14-14-14-14--10-10-10-10-10--7-7-7-7-7--10-10-10-10-10--|
G|-12-12-12-12-12---8--8--8--8--8--5-5-5-5-5---8--8--8--8--8--|
C|-12-12-12-12-12---8--8--8--8--8--5-5-5-5-5---8--8--8--8--8--|


Verse:
D|--------------|
A|--------------|
F|-8-8-8-8-8/7--|
C|-x-x-x-x-x-x--|
G|-6-6-6-6-6/5--|
C|--------------|

D|--------------|
A|--------------|
F|--------------|
C|--------------|
G|-0-0-0-0-0-0--|
C|-0-0-0-0-0-0--|
PM|. . . . . .
[ Tab from: http://www.guitartabs.cc/tabs/i/ill_nino/god_save_us_tab_ver_2.html ]
D|-------------------------------------------------------|
A|-------------------------------------------------------|
F|-------------------------------------------------------|
C|-------------------------------------------------------|
G|-0-0-0-0-0-1--0-0-0-0-0-1--0-0-0-0-0-1--0-0-0-0-0------|
C|-0-0-0-0-0-1--0-0-0-0-0-1--0-0-0-0-0-1--0-0-0-0-0-[5]--|

Chorus:
D|------------------------------------------------------------|
A|------------------------------------------------------------|
F|------------------------------------------------------------|
C|-14-14-14-14-14--10-10-10-10-10--7-7-7-7-7--10-10-10-10-10--|
G|-12-12-12-12-12---8--8--8--8--8--5-5-5-5-5---8--8--8--8--8--|
C|-12-12-12-12-12---8--8--8--8--8--5-5-5-5-5---8--8--8--8--8--|


Acoustic Interlude:
D|-----0---0---|-0---------0-------0-----|-----0-------0-----|-----0-------0------|
A|---6---6-----|---6---------3-------3---|-------3-------3---|-------3-------3----|
F|-------------|-----5---3-----3-------3-|---3-----3-------3-|---3-----3-------3--|
C|-0---------0-|-------------------------|-------------------|--------------------|
G|-5---------5-|-------1---------1-------|-------------------|-1---------1--------|
D|-------------|-------------------------|-3---------3-------|--------------------|

D|--------------|
A|--------------|
F|--------------|
C|--------------|
G|-0-0-0-0-0-0--|
C|-0-0-0-0-0-0--|
PM|. . . . . .

Verse:
D|--------------|
A|--------------|
F|-8-8-8-8-8/7--|
C|-x-x-x-x-x-x--|
G|-6-6-6-6-6/5--|
C|--------------|

D|--------------|
A|--------------|
F|--------------|
C|--------------|
G|-0-0-0-0-0-0--|
C|-0-0-0-0-0-0--|
PM|. . . . . .

D|-------------------------------------------------------|
A|-------------------------------------------------------|
F|-------------------------------------------------------|
C|-------------------------------------------------------|
G|-0-0-0-0-0-1--0-0-0-0-0-1--0-0-0-0-0-1--0-0-0-0-0------|
C|-0-0-0-0-0-1--0-0-0-0-0-1--0-0-0-0-0-1--0-0-0-0-0-[5]--|


D|--------------------------------------------------|
A|--------------------------------------------------|
F|--------------------------------------------------|
C|--------------------------------------------------|
G|-0-0-0-0-0-1--0-0-0-0-0-1--0-0-0-0-0-1--0-1-0-1---|
C|-0-0-0-0-0-1--0-0-0-0-0-1--0-0-0-0-0-1--0-1-0-1---|

--------------------------------------------------------------------------------
Legend
------

 h  = hammer-on		 |  = bar
 p  = pull-off		||  = double bar
 b  = bend		||* = repeat start
 r  = bend release	*|| = repeat end
 /  = slide up/down	*|  = double bar (end)
[5] = nat. harmonic	 !  = repeat beat (¼,8th)
 = art. harmonic	!!  = repeat beat (16th)
 ~  = vibrato		 %  = repeat measure
 tr = trill		 :  = bar (freetime)
 T  = tap		du  = tremolo bar dip
 TP = trem. picking	 d  = tremolo bar down
 PM = palm muting	 u  = tremolo bar up
 S  = slap		ud  = tremolo bar inverted dip
 P  = pop		 =  = hold (bend or tremolo bar)
--------------------------------------------------------------------------------

******************************************************************************************
* This file was generated with Power Tab Editor - Get it at http://home.tct.net/~blarsen *
******************************************************************************************
Comments