Ill Nino - God Save Us Chords & Tabs

 

God Save Us Chords & Tabs

Ill Nino Chords & Tabs

Version: 1 Type: Tab 0 ratings
1 star 2 stars 3 stars 4 stars 5 stars
comments

God Save Us Tab

   
Artist: Ill Nino 
Song: If You Still Hate Me
Album: Revolution Revolucion

Email: Givemeaname (I_am_going_to_conquer_the_world@hotmail.com)

C tuning.  
[ Tab from: http://www.guitartabs.cc/tabs/i/ill_nino/god_save_us_tab.html ]
Intro
------------------------------------------------------------------------------
------------------------------------------------------------------------------
------------------------------------------------------------------------------
------------------------------------------------------------------------------
-0-0--------------0-0--------------0-0--------------0-0-----------------------
-0-0--------------0-0--------------0-0--------------0-0-----------------------
                                                                              
Bridge 1(Not too sure if this is correct, but it sounds good)
------------------------------------------------------------------------------
------------------------------------------------------------------------------
------------------------------------------------------------------------------
------------------------------------------------------------------------------
-1-0-1-1-0-1-0-1-1-0-1-0-1-1-0-1-0-----3--------------------------------------
-1-0-1-1-0-1-0-1-1-0-1-0-1-1-0-1-0-----3--------------------------------------
                                                                              
Bridge 2
------------------------------------------------------------------------------
------------------------------------------------------------------------------
------------------------------------------------------------------------------
------------------------------------------------------------------------------
-1-0----1-1-0----1-0----1-1-0----1-0----1-1-0----1-0----1-1-0-0-0-0-0-0-------
-1-0----1-1-0----1-0----1-1-0----1-0----1-1-0----1-0----1-1-0-0-0-0-0-0-------
                                                            ...........PM     
Chorus 1
------------------------------------------------------------------------------
------------------------------------------------------------------------------
-15-15-15-17-17-17-19-19-19-20-20-20-20---------------------------------------
------------------------------------------------------------------------------
-13-13-13-15-15-15-17-17-17-18-18-18-18---------------------------------------
------------------------------------------------------------------------------
                                                                   
Chorus 2
------------------------------------------------------------------------------
------------------------------------------------------------------------------
------------------------------------------------------------------------------
------------------------------------------------------------------------------
------------------------------------------------------------------------------
-1-0-0-0-5*--------------11101-0-0-0-5*---------------------------------------
          *=harm         . . . . . . . . repeat                               

Build-up
------------------------------------------------------------------------------
------------------------------------------------------------------------------
------------------------------------------------------------------------------
------------------------------------------------------------------------------
-0---0------------------------------------------------------------------------
-0---0------------------------------------------------------------------------
 Just keep repeating                                                                          
   
Acoustic Part:

-----0---0---0-----|-----0-------0-----|-----0-------0-----|-----0-------0------| 
---6---6-------6---|-------3-------3---|-------3-------3---|-------3-------3----|
-----------------5-|---3-----3-------3-|---3-----3-------3-|---3-----3-------3--|
-0---------0-------|-------------------|-------------------|--------------------|
-5---------5-------|-1---------1-------|-------------------|-1---------1--------|
-------------------|-------------------|-3---------3-------|--------------------|

Ending
Guitar 1 plays Chorus 1, then Guitar 2 plays Chorus 1, then...

------------------------------------------------------------------------------
------------------------------------------------------------------------------
------------------------------------------------------------------------------
------------------------------------------------------------------------------
-1-0--------------------------------------------------------------------------
-1-0--------------------------------------------------------------------------
Comments